PrimaNota.ru - самый крупный в мире бесплатный архив песенных текстов, аккордов, табулатур и нот


Blue Stahli - Bandito - таба, видео

Регистрация Запомнить меня
Войти через:  Facebook Google Twitter Vk Yandex Mail.ru

Blue Stahli - Bandito - таба, видео

Печатать
Просмотров: 489
Hi, this is bandito by Blue Stahli and remorse code (former blue stahli so its really 
the same people). These are the tabs played during most of the song, apart from the solo.

Tabbed by: Yoyoloto ( Youssef O.)
E-mail: yussef_o@hotmail.com

Tuning: standard

Riff 1 :
e|-------------------|
B|-------------------|
G|-------------------|
D|-9999-10-----------|
A|-9999-10-----------|
E|-7777-8---8-7-6----|

Played 4 times first and on the 4th do this instead:


e|---------------------|
B|---------------------|
G|---------------------|
D|-9999-10-------------|
A|-9999-10-------------|
E|-7777-8---8-7-9-10---|

Riff 2:
e|-------------------|
B|-------------------|
G|-------------------|
D|-9999--------------|
A|-9999--------------|
E|-7777-----8-7-6----|

Played 4 times first and on the 4th do this instead:

e|--------------------|
B|--------------------|
G|----------3---------|
D|-999--77--3---------|
A|-999--77--1---------|
E|-777--55------------|

The 2 riffs are very much alike, exept for the 4th time they're played

Now when the clapping and drums start (after playing both riffs) you replay the first 
riff, and then play this last riff: (Let's call this last riff, riff 3)

Riff 3:

e|-------------------|
B|-------------------|
G|-------------------|
D|-9999-10-----------|
A|-9999-10-----------|
E|-7777-8---8-7-6----|

Played 4 times first and on the 4th do this instead:

e|--------|
B|--------|
G|--------|
D|-9999---|
A|-9999---|
E|-7777---|

then comes the solo

If you are confused, here's the order in which they are played:

Riff 1  - Riff 2 - Riff 1 - Riff 3

and you repeat this pattern twice in the song, listen to it to find out when.

It's not a hard song at all, so have fun :)
Добавлено: 18.04.2012
Другие материалы по этой песне:
  • Аккорды и текст

Страница создана 18.04.2012
http://primanota.ru/blue-stahli/bandito-chords.htm
Привет, Гость.
Предлагаем пройти революционный курс по гитаре.
Подарок от PrimaNota.Ru, забирай!