PrimaNota.ru - самый крупный в мире бесплатный архив песенных текстов, аккордов, табулатур и нот


Blue Stahli - Leadfoot Getaway - таба, видео

Регистрация Запомнить меня
Войти через:  Facebook Google Twitter Vk Yandex Mail.ru

Blue Stahli - Leadfoot Getaway - таба, видео

Печатать
Просмотров: 355
Blue Stahli-Leadfoot Getaway

Tuning: Drop C
OK, guys this is my first tab so don't be to hard to me :D

Intro 0:00-0:24
Guitar 1
D-------------------------------------------------------------------|
A-------------------------------------------------------------------|
F-------------------------------------------------------------------|
C-------------------------------------------------------------------|
G--3-3--3-6-3-6-8-3-3--3-6-3-6-8-3-3--3-6-3-6-8-3-3--3-6-3-2-1-3-3--|
C--3-3--3-6-3-6-8-3-3--3-6-3-6-8-3-3--3-6-3-6-8-3-3--3-6-3-2-1-3-3--|

D-------------------------------------------------------------------------|
A-------------------------------------------------------------------------|
F-------------------------------------------------------------------------|
C-------------------------------------------------------------------------|
G--3-6-3-6-8-3-3--3-6-3-6-8-3-3--3-6-3-6-8-3-3--3-6-3-6/8-3--3-6-3-6/8-3--|
C--3-6-3-6-8-3-3--3-6-3-6-8-3-3--3-6-3-6-8-3-3--3-6-3-6/8-3--3-6-3-6/8-3--|

D----------------------------------------------------------------|
A----------------------------------------------------------------|
F----------------------------------------------------------------|
C------------3------------3----3----3----3----3--3--3-3-3-3-3-3--|
G--3-6-3-6/8-3--3-6-3-2-1-3--3-3--3-3--3-3--3-3--3--3-3-3-3-3-3--|
C--3-6-3-6/8-3--3-6-3-2-1-3--3-3--3-3--3-3--3-3--3--3-3-3-3-3-3--|
             >            >    >    >    >    >  >  > > > > > >

something like a chorus 0:25-0:35
Guitar 1
D-------------------------------------------------------------------|
A-------------------------------------------------------------------|
F-------------------------------------------------------------------|
C--3-3--3-6-3-6-8-3-3--3-6-3-6-8-3-3--3-6-3-6-8-3-3--3-6-3-6-8-3-3--|
G--3-3--3-6-3-6-8-3-3--3-6-3-6-8-3-3--3-6-3-6-8-3-3--3-6-3-6-8-3-3--|
C--3-3--3-6-3-6-8-3-3--3-6-3-6-8-3-3--3-6-3-6-8-3-3--3-6-3-6-8-3-3--|

Guitar 2
D-------------------------------------------------------------------|
A-------------------------------------------------------------------|
F-------------------------------------------------------------------|
C------3-3-3-3-3-3-3-3-3-3-3-3-3-3-3-6-6-6-6-6-6-6-6-8-8-8-8-8-8-8--|
G-------------------------------------------------------------------|
C-------------------------------------------------------------------|

Guitar 1
D----------------------------------------------------------------|
A----------------------------------------------------------------|
F----------------------------------------------------------------|
C--3-6-3-2-1-3-3--3-6-3-6-8-3-3--3-6-3-6-6-6-6-6-6-8-8-8-8-8-8\--|
G--3-6-3-2-1-3-3--3-6-3-6-8-3-3--3-6-3-6-6-6-6-6-6-8-8-8-8-8-8\--|
C--3-6-3-2-1-3-3--3-6-3-6-8-3-3--3-6-3-6-6-6-6-6-6-8-8-8-8-8-8\--|

Guitar 2
D-----------------------------------------------------------------|
A-----------------------------------------------------------------|
F-----------------------------------------------------------------|
C--8-8-8-8-8-8-8-3-3-3-3-3-3-3-3-3-3-3-6-6-6-6-6-6-8-8-8-8-8-8-8--|
G-----------------------------------------------------------------|
C-----------------------------------------------------------------|

No Guitar in verse, just drums effects and bass

Repeat the chorus once but end on this:
Guitar 1
D--------------------------|
A--------------------------|
F--------------------------|
C--8-8-6-3-8-(8)-6-(6)-3\--|
G--8-8-6-3-8-(8)-6-(6)-3\--|
C--8-8-6-3-8-(8)-6-(6)-3\--|

Again a verse but at 1:18 he goes
D--------------|
A--------------|
F--------------|
C--6-3-2-1-3\--|
G--6-3-2-1-3\--|
C--6-3-2-1-3\--|
           >

Bridge 1:25-1:52 w/wah or flanger                          x3
D----------------------------------------------------------|
A---------------------------------------------------------o|
F----------------------------------------------------------|
C----------------------------------------------------------|
G--2-5--2-5--2-5-2--2-5-2-5/7--3-6--3-6--3-6-3--3-6-3-6/8-o|
C--2-5--2-5--2-5-2--2-5-2-5/7--3-6--3-6--3-6-3--3-6-3-6/8--|

                   flanger off
D------------------------|
A------------------------|
F------------------------|
C-------------------6-6--|
G--8-6-8-6-8-6-8-6--6-6--|
C--8-6-8-6-8-6-8-6--6-6--|
                    > >

repeat the chorus once and then
D---------|
A---------|
F---------|
C--8-8-6--|
G--8-8-6--|
C--8-8-6--|
   > > >
repeat the chorus again and end on
D-----------|
A-----------|
F-----------|
C--8-6-3~\--|
G--8-6-3~\--|
C--8-6-3~\--|

that's it :)
Добавлено: 27.07.2012
Другие материалы по этой песне:
  • Аккорды и текст

Страница создана 27.07.2012
http://primanota.ru/blue-stahli/leadfoot-getaway-chords.htm
Привет, Гость.
Предлагаем пройти революционный курс по гитаре.
Подарок от PrimaNota.Ru, забирай!