PrimaNota.ru - самый крупный в мире бесплатный архив песенных текстов, аккордов, табулатур и нот


August Burns Red - Martyr - таба, видео

Регистрация Запомнить меня
Войти через:  Facebook Google Twitter Vk Yandex Mail.ru

August Burns Red - Martyr - таба, видео

Печатать
Просмотров: 82
[Martyr]
[Found In Far Away Places]
[August Burns Red]

Tuning: B Gb B E Ab Db (Drop B / 1.5 Steps Down From Drop D)
joshuaoliveira@hotmail.com

get your tapping fingers ready!

[Riff 1a] - [00:00] - [00:42] - [x6]
- --------------------------------------------------------------------------------------------------|
- -15-15-15-15-15-15-15-15-15-15-15-15-15-15-15-15-15-15-15-15-15-15-15-15-15-15-15-15-15-15-15-15--|
- -14-14-14-14-14-14-14-14-14-14-14-14-14-14-14-14-15-15-15-15-15-15-15-17-17-17-17-17-17-17-17-17--|
- -12-12-12-12-12-12-12-12-12-12-12-12-12-12-12-12-12-12-12-12-12-12-12-12-12-12-12-12-12-12-12-12--|
- --------------------------------------------------------------------------------------------------|
- --------------------------------------------------------------------------------------------------|

[Riff 1b] - [00:07] - [00:14]
- --------------------------------------------------------------------------|
- --------------------------------------------------------------------------|
- --------------------------------------------------------------------------|
- -0~-----------------------------------------------------------------------|
- -0~------------------------------000-0-------0-000------------------------|
- -0~------------------------------000-0-------0-000-------8-7-0-7-10-7-7-8-|
PM                                 ........................................

[Riff 1c] - [00:14] - [00:42-------------------------------------------------| - [x4]
- ---------------------------------------------------------------------------|
- ---------------------------------------------------------------------------|
- ---------------------------------------------------------------------------|
- ---------------------------------------------------------------------------|
- ---0-000-0---------000-0---0-000-000-0-------0-000-------------------------|
- ---0-000-0---------000-0---0-000-000-0-------0-000-------8-7-0-7-10-7-7-8--|
PM   ......................................................................

let notes ring out on third time through

[Riff 1d] - [00:28] - [00:42-| - [x8]
- ---------------------------|
- ---------------------------|
- -10-10-10-10-10-10-10-10---|
- ---------------------------|
- ---------------------------|
- ---------------------------|

[Riff 2, Guitar 1 & 2] - [00:42] - [00:44]
- -------------------|
- -------------------|
- -------------------|
- -------------------|
- -0-----------------|
- -0-----------------|
PM .
- -------------------|
- -------------------|
- -------------------|
- ---7h8-----------7-|
- -0-----8\5-4/7-7---|
- -0-----------------|
PM .


[Riff 3a] - [00:44] - [01:12--------------------------------| - [x4]
- ----------------------------------------------------------|
- ----------------------------------------------------------|
- ----------------------------------------------------------|
- -------------------------7p0-------------7p0-3p0-5p0------|
- -0-7h8p7p0-0-7h8p7p0-4h5-----0-7h8p7p0-0-------------4p0--|
- -0---------0-----------------0---------0------------------|
PM .         .                 .         .

                               T    T    T    T                    T
- -----------------------------------------------------------------------|------|
- -----------------------------------------------------------------------|------|
- -----------------------------------------------------------------------|------| slide to 12 on last play
- -------------------------7p0-15p0-14p0-12p0-14p0-11h12p11p0-9/11-19p11-|-/12~-| through
- -0-7h8p7p0-0-7h8p7p0-4h5-----------------------------------------------|------|
- -0---------0-----------------------------------------------------------|------|
PM .         .

[Riff 3b] - [00:58] - [01:12-----------------------------------------| - [x2]
- -------------------------------------------------------------------|
- -------------------------------------------------------------------|
- -------------------------------------------------------------------|
- -------------------------------------------------------------------|
- -0-----00000-0-----0-------000-0-0-----00000-0-----------77777777--|
- -0-----00000-0-----0-------000-0-0-----00000-0-----------77777777--|
PM ................................................................

[Riff 3c, Guitar 1 & 2] - [01:12] - [01:16]
- -------------------------------------|
- -------------------------------------|
- -------------------------------------|
- -0~----------------------------------|
- -0~----------------------------------|
- -0~----------------------------------|
-  T        T        T        T
- -------------------------------------|
- -------------------------------------|
- -10p9p7h9-10p9p7h9-10p9p7h9-10p9p7h9-| fade in
- -------------------------------------|
- -------------------------------------|
- -------------------------------------|

[Riff 2, Guitar 1 & 2] - [01:16] - [01:18]


[Riff 4a] - [01:18] - [01:46]
- -----------------------------------------------------------------|
- -----------------------------------------------------------------|
- -----------------------------------------------------------------|
- -----------------------------------------------------------------|
- -000000000---------000---00000-----77-77-7---------77777-77777---|
- -000000000---------000---00000-----77-77-7---------77777-77777---|
PM ...............................................................

- -------------------------------------------------------------------|
- -------------------------------------------------------------------|
- -------------------------------------------------------------------|
- ---------------------------------------------------7h8-----------7-|
- -000000000---------000---00000-----77-77-7-------7-----8\5-4/7-7---|
- -000000000---------000---00000-----77-77-7-------7-----------------|
PM .................................................

- -----------------------------------------------------------------|
- -----------------------------------------------------------------|
- -----------------------------------------------------------------|
- -----------------------------------------------------------------|
- -000000000---------000---00000-----77-77-7---------77777-77777---|
- -000000000---------000---00000-----77-77-7---------77777-77777---|
PM ...............................................................

- -------------------------------------------------------------------|-------------------|
- -------------------------------------------------------------------|-------------------| harmony part
- -------------------------------------------------------------------|---5h7---------6---| on last play
- ---------------------------------------------------7h8---------7---|-------7\3-2-------| through
- -000000000---------000---00000-----77-77-7-------7-----8\5-4-------|-7-----------------|
- -000000000---------000---00000-----77-77-7-------7-----------------|-7-----------------|
PM .................................................                   .

[Riff 4b] - [01:18] - [01:46] - [x4]
   T        T        T        T        T        T        T        T
- -------------------------------------------------------------------------|
- -------------------------------------------------------------------------|
- -10p9p7h9-10p9p7h9-10p9p7h9-10p9p7h9-10p9p7h9-10p9p7h9-10p9p7h9-10p9p7h9-|
- -------------------------------------------------------------------------|
- -------------------------------------------------------------------------|
- -------------------------------------------------------------------------|

   T        T        T        T        T        T        T          T
- -----------------------------------------------------------------------------|
- -------------------------------------------------------10p8h10h11-14p11p10p8-|
- -12p9p6h9-12p9p6h9-12p9p6h9-12p9p6h9-12p9p6h9-12p9p6h9-----------------------|
- -----------------------------------------------------------------------------|
- -----------------------------------------------------------------------------|
- -----------------------------------------------------------------------------|

[Riff 4c] - [01:32] - [01:46] - [x2]
   T           T           T           T           T           T           T           T
- -------------------------------------------------------------------------------------------------|
- -------------------------------------------------------------------------------------------------|
- -14p12p10h12-14p12p10h12-14p12p10h12-14p12p10h12-14p12p10h12-14p12p10h12-14p12p10h12-14p12p10h12-|
- -------------------------------------------------------------------------------------------------|
- -------------------------------------------------------------------------------------------------|
- -------------------------------------------------------------------------------------------------|

   T          T          T          T          T          T          T           T
- -------------------------------------------------------------------------------------------|
- -------------------------------------------------------------------14p11h14h15-17p15p14p11-|
- -12p12p9h12-12p12p9h12-12p12p9h12-12p12p9h12-12p12p9h12-12p12p9h12-------------------------|
- -------------------------------------------------------------------------------------------|
- -------------------------------------------------------------------------------------------|
- -------------------------------------------------------------------------------------------|

clean

[Riff 5a, Guitar 1 & 2] - [01:46] - [03:24------------------------------------------------------| - [x7]
- --------------------------------------------------------------------------------------------------|
- -------------------------13----13----13----13----------------------------13----13----13----13-----|
- -10----10----10----10----------------------------12----12----12----12-----------------------------|
- ----12----12----12----12----12----12----12----12----10----10----10----10----10----10----10----10--|
- --------------------------------------------------------------------------------------------------|
- --------------------------------------------------------------------------------------------------|
-
- -------------------------------------------------------------------------------------13----12----|
- -------------------------------------------------------------------------------------------------|
- -------------------------------------------------------------------------------------------------|
- -------------------------------------------------------------------------------------------------|
- -------------------------------------------------------------------------------------------------|
- -------------------------------------------------------------------------------------------------|


- -------------------------------------------------------------------------------------------------|
- -------------------------------------------------------------------------------------------------|
- -------------------------------------------------------------------------13----13----13----13----|
- -14----14----14----14----14----14----14----14----12----12----12----12----------------------------|
- ----12----12----12----12----15----15----15----15----10----10----10----10----10----10----10----10-|
- -------------------------------------------------------------------------------------------------|
-
- -------------------------13----------------------------------------------15----------------------|
- -15----------------------------------------------13----------------------------------------------|
- -------------------------------------------------------------------------------------------------|
- -------------------------------------------------------------------------------------------------|
- -------------------------------------------------------------------------------------------------|
- -------------------------------------------------------------------------------------------------|

[Riff 5b] - [01:46] - [03:24------------------------------------------------------------------------| - [x7]
- ----------------17----------------------------------------------17-------------------------17-----|
- -15----------------15-18----17-------------18----15----------------15-18----15----------------15--|
- ----14-17/19-14----------17----14-17/19-14----14----14-17/19-14----------17----14-17/19-14--------|
- --------------------------------------------------------------------------------------------------|
- --------------------------------------------------------------------------------------------------|
- --------------------------------------------------------------------------------------------------|

- ----------------17----------------------------------------------17-------------------------18----|
- -15----------------15-18----17-------------18----15----------------15-18----15----------------15-|
- ----14-17/19-14----------17----14-17/19-14----14----14-17/19-14----------17----14-17/19-14-------|
- -------------------------------------------------------------------------------------------------|
- -------------------------------------------------------------------------------------------------|
- -------------------------------------------------------------------------------------------------|

[Riff 5c] - [02:27] - [02:56]
- ------------------------------------------------------------------------------------------|
- -----------------------------13------15---15--15--13v-------------------------------------|
- -12bv------------------12h14----14---14---14--14--12v-------------------------------------|
- ------------------------------------------15--12--10v-----------------10v-----12b---12p10-|
- ----------------------------------------------------------------10h12---------------------|
- ------------------------------------------------------------------------------------------|

- ----------------------------------------------------------------------------|
- ----------------------------------------------------------------------------|
- ----------------------------------------------------------------------------|
- -12v-------\-10-/12~------/15~-----\-10~---------\-10p7---------------------|
- -------------10-/12~------/15~-----\-10~---------\------10v---/13-7br-------|
- ------------------------------------------------------------------------10--|

- ----------------------------------10w\---w/------------------------------------|
- ----------------------------------8w\----w/------------------------------------|
- ---------------7/14~--------------9w\----w/-------10-9-9h10p9h10p9---12b-------|
- -----------------------15v----\---10w\---w/------------------------------------|
- -------------------------------------------------------------------------------|
- /12v---------------------------------------------------------------------------|

- -10--10--10-10--10--10-10--10----------------------------------------------------------------------------|
- -10--10--10-10--10--10-10--10--10v---\-------------------------------------------------------------------|
- -10--10--10-10--10--10-10--10--10v---\-------------------------------------------------------------------|
- -12--12--10-12--12--10-12--12----------------------------10------------------10h12p10-9h10p9-------------|
- ---------------------------------------------------10-12-----12--10v-------------------------10/14-12~---|
- -----------------------------------------/12-10h12-------------------------------------------------------|

distortion, fade in really slowly

[Riff 5d] - [02:56] - [03:24] - [x2]
   T    T    T    T    T    T    T    T    T    T    T    T    T    T    T    T
- ---------------------------------------------------------------------------------|
- ---------------------------------------------------------------------------------|
- -------------------------------14p7-14p7-10p7-10p7-10p7--------------------------|
- -12p7-12p7-10p7-12p7-12p7-12p7--------------------------10p7-10p7-10p7-12p7-12p7-|
- ---------------------------------------------------------------------------------|
- ---------------------------------------------------------------------------------|

   T    T    T    T    T    T    T    T    T    T    T    T    T    T    T    T
- ---------------------------------------------------------------------------------|
- ---------------------------------------------------------------------------------|
- -------------------------------15p7-15p7-14p7-14p7-14p7-10p7-10p7-10p7-12p7-12p7-|
- -12p7-12p7-10p7-12p7-12p7-12p7---------------------------------------------------|
- ---------------------------------------------------------------------------------|
- ---------------------------------------------------------------------------------|

   T    T    T    T    T    T    T    T    T    T    T    T    T    T    T    T
- ---------------------------------------------------------------------------------|
- ---------------------------------------------------------------------------------|
- -------------------------------14p7-14p7-10p7-10p7-10p7--------------------------|
- -12p7-12p7-10p7-12p7-12p7-12p7--------------------------10p7-10p7-10p7-12p7-12p7-|
- ---------------------------------------------------------------------------------|
- ---------------------------------------------------------------------------------|

   T    T    T    T    T    T    T    T    T    T    T    T     T     T     T     T
- --------------------------------------------------------------------------------------|
- --------------------------------------------------------13p10-13p10-13p10-13p10-13p10-|
- -------------------------------15p7-15p7-14p7-14p7-14p7-------------------------------|
- -12p7-12p7-10p7-12p7-12p7-12p7--------------------------------------------------------|
- --------------------------------------------------------------------------------------|
- --------------------------------------------------------------------------------------|

[Riff 6, Guitar 1 & 2] - [03:24] - [03:31]
- -------------------------------------------------------------------------------------------------|
- -------------------------------------------------------------------------------------------------|
- -------------------------------------------------------------------------------------------------|
- -0~----------------------------------------------------------------------------------------------|
- -0~----------------------------------------------------------------------------------------------|
- -0~----------------------------------------------------------------------------------------------|
-  T     T     T     T     T     T     T     T     T     T     T     T     T     T     T     T
- -------------------------------------------------------------------------------------------------|
- -15p10-15p10-15p10-15p10-15p10-15p10-15p10-15p10-15p10-15p10-15p10-15p10-15p10-15p10-15p10-15p10-|
- -------------------------------------------------------------------------------------------------|
- -------------------------------------------------------------------------------------------------|
- -------------------------------------------------------------------------------------------------|
- -------------------------------------------------------------------------------------------------|

[Riff 7a] - [03:31] - [04:26-------------------------------------------------| - [x4]
- ---------------------------------------------------------------------------|
- ---------------------------------------------------------------------------|
- ---------------------------------------------------------------------------|
- ---------------------------------------------------------------------------|
- ---0-000-0---------000-0---0-000-000-0-------0-000-------------------------|
- ---0-000-0---------000-0---0-000-000-0-------0-000-------8-7-0-7-10-7-7-8--|
PM   ......................................................................

- --------------------------------------------------------------------------|
- --------------------------------------------------------------------------|
- --------------------------------------------------------------------------|
- --------------------------------------------------------------------------|
- ---1-111-1---------111-1---1-111-333-3-------3-333------------------------|
- ---3-333-3---------333-3---3-333-555-5-------5-555-------8-7-0-7-10-7-7-8-|
PM   ......................................................................

[Riff 7b] - [03:31] - [04:26] - [x4]
   T     T     T     T     T     T     T     T     T     T     T     T     T     T     T     T
- -------------------------------------17p10-17p10-13p10-13p10-13p10-------------------------------|
- -15p10-15p10-13p10-15p10-15p10-15p10-------------------------------13p10-13p10-13p10-15p10-15p10-|
- -------------------------------------------------------------------------------------------------|
- -------------------------------------------------------------------------------------------------|
- -------------------------------------------------------------------------------------------------|
- -------------------------------------------------------------------------------------------------|

   T     T     T     T     T     T     T     T     T     T     T     T     T     T     T     T
- -------------------------------------18p10-18p10-17p10-17p10-17p10-13p10-13p10-13p10-15p10-15p10-|
- -15p10-15p10-13p10-15p10-15p10-15p10-------------------------------------------------------------|
- -------------------------------------------------------------------------------------------------|
- -------------------------------------------------------------------------------------------------|
- -------------------------------------------------------------------------------------------------|
- -------------------------------------------------------------------------------------------------|

   T     T     T     T     T     T     T     T     T     T     T     T     T     T     T     T
- -------------------------------------17p10-17p10-13p10-13p10-13p10-------------------------------|
- -15p10-15p10-13p10-15p10-15p10-15p10-------------------------------13p10-13p10-13p10-15p10-15p10-|
- -------------------------------------------------------------------------------------------------|
- -------------------------------------------------------------------------------------------------|
- -------------------------------------------------------------------------------------------------|
- -------------------------------------------------------------------------------------------------|

   T     T     T     T     T     T     T     T     T     T     T     T     T     T     T     T
- -------------------------------------18p10-18p10-17p10-17p10-17p10-13p10-13p10-13p10-20p10-20p10-|
- -15p10-15p10-13p10-15p10-15p10-15p10-------------------------------------------------------------|
- -------------------------------------------------------------------------------------------------|
- -------------------------------------------------------------------------------------------------|
- -------------------------------------------------------------------------------------------------|
- -------------------------------------------------------------------------------------------------|

[Riff 6, Guitar 1 & 2] - [04:26] - [04:35]

[Symbols]

PM... Palm Mute notes with (...) under them
AP... Alternate Pick notes with (...) under them
h     Hammer On
p     Pull Off
[ ]   Harmonic
/     Slide Up
\     Slide Down
x     Dead Note
b     Bend
p     Pre-Bend
r     Release Bend
(x )  Play Notes x amount of times
~     Let Ring
/ 3 \ Notes are triplets (3 notes in the space of two)
w\    Whammy Bar Down
w/    Whammy Bar Up
T     Right Hand Tap

:)
Добавлено: 25.10.2015
Другие материалы по этой песне:

Страница создана 25.10.2015
http://primanota.ru/august-burns-red/martyr-chords.htm
Привет, Гость.
Предлагаем пройти революционный курс по гитаре.
Подарок от PrimaNota.Ru, забирай!