PrimaNota.ru - самый крупный в мире бесплатный архив песенных текстов, аккордов, табулатур и нот


August Burns Red - Identity - таба, видео

Регистрация Запомнить меня
Войти через:  Facebook Google Twitter Vk Yandex Mail.ru

August Burns Red - Identity - таба, видео

Печатать
Просмотров: 223
I'm Jordan Atirene and this is my first time writing a tab. 
I have done a guitar cover on YouTube with this song
which you can check out to compare if you want. https://www.youtube.com/watch?v=tEYKn5ewdew
This is not 100% correct only my interpretation on it. 
Feedback is nice and 
if you disagree with certain parts let me know so I can change it up, same goes for if 
I missed anything that 
should be in a tab.  
I'm still learning how how to use Guitar Pro properly and the whole drum effect thing. 
Anyway enjoy the tab.

August Burns Red - Identity, Guitar Tab
Tuning: Drop C - C G C F A D
Tabbed by: Jordan Atirene

INTRO 0:00
D --------------------------------------------7--------
A --------------------------------------------7--------
F --------------------------------------------7--------
C ---7--------------6---7-------11-----0---------------
G ---4--------------3---4-------7------0---------------
C ---4--------------3---4-------7------0---------------

0:08

D --------------------------------------------------------------------------------------------------------------
A --------------------------------------------------------------------------------------------------------------
F -----------------9-----11-------------------------------------------------------------9-----11----------------
C ---/7~-----4--6------------12--11----11--12------11h12p11h12p11h12p11--9--7------4--6-----------12--11----11--
G --------------------------------------------------------------------------------------------------------------
C --------------------------------------------------------------------------------------------------------------

D ----------------------------------------------------------------------12--14----------------------------------
A ------------------------------------------------------------------------------12--14--12------12--------------
F ------11---------------------------------9-----11-------------------------------------------14------11~~~~~---
C --12-----12-11-9-11-12-11-9-7------4--6------------12--11----11--12-------------------------------------------
G --------------------------------------------------------------------------------------------------------------
C --------------------------------------------------------------------------------------------------------------

PRE VERSE 0:28
Side note* this is the rift just before the led from the intro is done

D ------------------------------------------------------
A ------------------------------------------------------
F ------------------------------------------------------
C --4---------4----------------------4---------4--------
G --4--0-0-0--4--0-0-0-----4---------4--0-0-0--4--0-0-0-
C --4--0-0-0--4--0-0-0--7-----7--4---4--0-0-0--4--0-0-0-
       * * *     * * *                  * * * *   * * * 

VERSE 0:31

D --------------------------------------------------------------------------------------------------------------
A --------------------------------------------------___-----------___-------------------------------------------
F -------------------------------------------------/   \---------/   \------------------------------------------
C --7----4---------4----------------------11------9h11h12---11--12p11p9--7---2----4---------4-------------------
G --7----4--0-0-0--4--0-0-0-----4------------9-12---------9--------------7---2----4--0-0-0--4--0-0-0------4-----
C --7----4--0-0-0--4--0-0-0--7-----7--4----------------------------------7---2----4--0-0-0--4--0-0-0--7-----7--4
            * * *     * * *                                                          * * *     * * *

D --------------------------------------------------------------------------------------------------------------
A --------------------------------------------------------------------------------------------------------------
F --------------------------------------------------------------------------------------------------------------
C --4---------4----------7---4---------4----------------------------------------------------4---------4---------
G --4--0-0-0--4--0-0-0---7---4--0-0-0--4--0-0-0-----4--------5-5-4-4-2-2-4-4-2-2-0-0-2-2-0--4--0-0-0--4--0-0-0-0
C --4--0-0-0--4--0-0-0---7---4--0-0-0--4--0-0-0--7-----7--4---------------------------------4--0-0-0--4--0-0-0-0
       * * *     * * *          * * *     * * *              * * * * * * * * * * * * * * *     * * *     * * * *

D --------------------------------------------------------------------------------------------------------------
A ---------------------------------------------------------------___----------___-------------------------------
F --------------------------------------------------------------/   \--------/   \------------------------------
C ------4---------4---------7--2--4---------4----------11------9h11h12---11-12p11p9--7---2----------------------
G --0---4--0-0-0--4--0-0-0--7--2--4--0-0-0--4--0-0-0------9-12---------9-------------7---2----------------------
C --0---4--0-0-0--4--0-0-0--7--2--4--0-0-0--4--0-0-0---------------------------------7---2----------------------
    *      * * *     * * *           * * *     * * *

BUILD UP 0:48

D --------------------------------------------------------------------------------------------------------------
A --------------------------------------------------------------------------------------------------------------
F --------------------------------------------------------------------------------------------------------------
C --7-7---------7-7---------7-7-----7-7---------7-7---------11-11-----------11-11-----------11-11-------15-15-14
G ------9-9-5-5-----9-9-5-5-----9-9-----9-9-5-5-----9-9-5-5-------12-12-9-9-------12-12-9-9-------12-12---------
C --------------------------------------------------------------------------------------------------------------

D -------------------------------------
A ---------------------15--15--15------
F -------------------------------------
C --14----12-12-14-14------------------
G -------------------------------------
C -------------------------------------

THAT SWEET SINGING GUITAR MOMENT 0:54

D --------------------------9--10--9----------------------------------------------------------------------------
A ----------10/12--9----10------------10------10--12--14--17~~~-------------------------------------------------
F -------9--------------------------------11--------------------16--18~-----------------------------------------
C --/11---------------------------------------------------------------------12p11-------------14--12--11--12--14
G ---------------------------------------------------------------------------------12--9--12--------------------
C --------------------------------------------------------------------------------------------------------------
                                                                                               *   *   *   *   *

D ------------------------------------------12-----------------------------12-----------------------------------
A ----------------------------------------------14-----14--15--14--12----------14--12----14--15--14--12---------
F --11--14--14--11------11------11--14--11-----------------------------14--------------------------------14-----
C ------------------14------14----------------------------------------------------------------------------------
G --------------------------------------------------------------------------------------------------------------
C --------------------------------------------------------------------------------------------------------------

D --12----------------14--17--14------14--22--21--14--17--14--------------------------------12------------------
A ------15--14----15--------------17--------------------------17--15----14--15--14--12----------14--12----------
F --------------------------------------------------------------------------------------14----------------------
C --------------------------------------------------------------------------------------------------------------
G --------------------------------------------------------------------------------------------------------------
C --------------------------------------------------------------------------------------------------------------

D ----------------------12--------------------------------------------------------17--13------13----------------
A --14--15--14--12----------15--14----15--14----------------------14--15--14--15----------15------14\-----------
F ------------------14------------------------14----------14--16------------------------------------------------
C ------------------------------------------------14--16--------------------------------------------------------
G --------------------------------------------------------------------------------------------------------------
C --------------------------------------------------------------------------------------------------------------

THAT FIRST BREAKDOWN 1:21

D ----------------------------------------------------------------------------------------------------------
A ----------------------------------------------------------------------------------------------------------
F ----------------------------------------------------------------------------------------------------------
C --4-4-4-4--2--4--7--4--2--4----4-4--2--4--7--4--4-4-4-4--2--4--7--4--2--4----4-4--2--4--7--4--0--2-------- X4
G --4-4-4-4--2--4--7--4--2--4----4-4--2--4--7--4--4-4-4-4--2--4--7--4--2--4----4-4--2--4--7--4--0--2--------
C --4-4-4-4--2--4--7--4--2--4----4-4--2--4--7--4--4-4-4-4--2--4--7--4--2--4----4-4--2--4--7--4--0--2--------
    * * * *  *  *  *  *  *  *    * *  *  *  *  *  * * * *  *  *  *  *  *  *    * *  *  *  *  *  *  *

THE BEND LEAD 1:33

D -----------------------------------------------------------14-------------------------------------------------
A --14b(15)--14--------------14-14b(15)-14b(15)------------------15--14-----14b(15)--14--------------14-14b(15)-
F ---------------11------11----------------------11------11------------------------------11------11-------------
C -------------------14------------------------------14--------------------------------------14-----------------
G --------------------------------------------------------------------------------------------------------------
C --------------------------------------------------------------------------------------------------------------

D -----------------------14------16--   
A --14b(15)------------------15------
F -----------11------11--------------
C ---------------14------------------
G -----------------------------------
C -----------------------------------

Side note* This part is just the harmony to the previous bit. 1:40 and ends the same as the previous part

D --------------------------------------------------14------16----
A -----10b(11)---------------10-10b(11)-----------------15--------
F --------------11--9--11----------------11--9--11----------------
C ----------------------------------------------------------------
G ----------------------------------------------------------------
C ----------------------------------------------------------------

PRE SOLO GROOVE 1:46

D ---------------------------------------
A ---------------------------------------
F --11\9/11---------7--------16----------
C --11\9/11---------7--------16---------- X4
G --9 \7/9----------5--------14----------
C ---------------------------------------

SOLO (start with  tremelo picking slide down the neck) 2:08

D --------------------------------------------------------------------------------------------------------------
A --------------------------------------------------------------------------------------------------------------
F ---------------------11--14-----------11--14/16--16--14-------------<16>p14------<16>p14------16p14-----------
C --12\-------/11--14-----------11--14---------------------16--14--------------16-----------16------------------
G --------------------------------------------------------------------------------------------------------------
C --------------------------------------------------------------------------------------------------------------

D --------------------------------------------14------14--17---17--19--19b(21)-19(21)--17--19b(21)-19(21)--17---
A --14---------14--------------12--13--14/17------17------------------------------------------------------------
F --16b(18)----16b(18)---14~------------------------------------------------------------------------------------
C --------------------------------------------------------------------------------------------------------------
G --------------------------------------------------------------------------------------------------------------
C --------------------------------------------------------------------------------------------------------------

D --24-21-20-19--------------12-------------12-12---------------------------------------------------------------
A --------------------14--------14----14-------------15----14h15p14----17-17-17-17-17-17-15-15-15-15-15-15------
F -----------------11----11--------11----11-------11----11------------------------------------------------------
C --------------------------------------------------------------------------------------------------------------
G --------------------------------------------------------------------------------------------------------------
C --------------------------------------------------------------------------------------------------------------

D -----------------------------17---------12/14--14-14--12/14--14-14---14-13-12----17--19--19b(21)-19(21)-------
A --14-14-14-14-14-14-----/15------15-----12/14--14-14--12/14--14-14---14-13-12---------------------------------
F --------------------------------------------------------------------------------------------------------------
C --------------------------------------------------------------------------------------------------------------
G --------------------------------------------------------------------------------------------------------------
C --------------------------------------------------------------------------------------------------------------

D --17--19b(21)-19(21)--19(21)--19~---17p16--------
A -------------------------------------------19----
F -------------------------------------------------
C -------------------------------------------------
G -------------------------------------------------
C -------------------------------------------------

 PRE VERSE (this bit is played just before teh sole ends) 2:34

D ---------------------------------------------------------
A ---------------------------------------------------------
F ---------------------------------------------------------
C --4---------4-----------------------4---------4----------
G --4--0-0-0--4--0-0-0-----4----------4--0-0-0--4--0-0-0---
C --4--0-0-0--4--0-0-0--7-----7--4----4--0-0-0--4--0-0-0---
       * * *     * * *                   * * *     * * *

VERSE 2:37

D --------------------------------------------------------------------------------------------------------------
A --------------------------------------------------------------------------------------------------------------
F --------------------------------------------------------------------------------------------------------------
C --7----4---------4--------------------------------------------------------4---------4-------------------------
G --7----4--0-0-0--4--0-0-0------4--------5-5-4-4-2-2-4-4-2-2-0-0-2-2-0-----4--0-0-0--4--0-0-0------4-----------
C --7----4--0-0-0--4--0-0-0---7-----7--4------------------------------------4--0-0-0--4--0-0-0---7-----7--4-----
            * * *     * * *               * * * * * * * * * * * * * * *        * * *     * * * 

D ------------------------------------------------------------------------------
A ------------------------------------------------------------------------------
F ------------------------------------------------------------------------------
C --7-----4---------4-----------------------12-0-11-0-9-0-11-0-9-0----0-9-0-----
G --7-----4--0-0-0--4--0-0-0------4--------------------------------12-------9---
C --7-----4--0-0-0--4--0-0-0---7-----7--4---------------------------------------
             * * *     * * *

BREAKDOWN!!!!

D ----------------------------------------------------------------------------------------------------------
A ----------------------------------------------------------------------------------------------------------
F ----------------------------------------------------------------------------------------------------------
C --4----------------------------------------------7--4----------------------------------7--2--4------------  X4
G --4--0-0-0-0--0-0-0-0-0-0-0-0--0-0-0-0--0-0-0-0--7--4--0-0-0-0--0-0-0-0-0-0-0-0--0-0---7--2--4------------
C --4--0-0-0-0--0-0-0-0-0-0-0-0--0-0-0-0--0-0-0-0--7--4--0-0-0-0--0-0-0-0-0-0-0-0--0-0---7--2--4------------
       * * * *  * * * * * * * *  * * * *  * * * *        * * * *  * * * * * * * *  * *        

Side note* after each second playthrough play this and then end with the next part

D ----------------------------------------                 ------------------
A ------------___----------___------------                 ------------------
F -----------/   \--------/   \-----------                 ------------------
C --11------9h11h12---12-12p11p9----7---2-                 ----12-12-12-12---
G -----9-12---------9---------------7---2-                 ----12-12-12-12---
C ----------------------------------7---2-                 ----12-12-12-12---

The tapping harmony i struggled with but this was what i got 3:01

D --17-14p10h14--17-14p10h14--17-14p10h14--17-14p10h14--17-14p10h14--17-14p10h14---21-14p10h14------------------
A -----------------------------------------------------------------------------------------
F -----------------------------------------------------------------------------------------
C -----------------------------------------------------------------------------------------
G -----------------------------------------------------------------------------------------
C -----------------------------------------------------------------------------------------
    T         T         T         T         T         T          T         

D --17-14p10h14--17-14p10h14--17-14p10h14--17-14p10h14-------------------------------------------------
A ------------------------------------------19-14p10h14--19-14p10h14--22-14p10h14--22-14p10h14---------
F -----------------------------------------------------------------------------------------
C -----------------------------------------------------------------------------------------
G -----------------------------------------------------------------------------------------
C -----------------------------------------------------------------------------------------
    T         T         T         T

Repeat the first tapping section and then end with this

D --17-14p10h14--17-14p10h14--17-14p10h14--17-14p10h14--17-13p10h13--17-13p10h13--22-13p10h13--19-13p10h13---------
A -----------------------------------------------------------------------------------------
F -----------------------------------------------------------------------------------------
C -----------------------------------------------------------------------------------------
G -----------------------------------------------------------------------------------------
C -----------------------------------------------------------------------------------------
    T        T         T          T         T         T         T         T

CHORD PART just keep strumming these chords to the rhythm 3:14

D -------------------------------------------------------
A -------------------------------------------------------
F --11--------9/11--------14-------7---------16----------
C --11--------9/11--------14-------7---------16----------
G --9---------7/9---------12-------5---------14----------
C -------------------------------------------------------

ENDING VERSE 3:42

D ---------------12---14--10--9--9-10~--9-10-9-10-9-10-9-------------------12--14--10--9--9--10~--14-10-9-10---
A --/10------10--------------------------------------------12--10~~-----10-------------------------------------
F -------11---------------------------------------------------------11-----------------------------------------
C -------------------------------------------------------------------------------------------------------------
G -------------------------------------------------------------------------------------------------------------
C -------------------------------------------------------------------------------------------------------------

D --9-10-9-12---------------12---14--10--9--9--10~--9-10-9-10-9-10----------------12--14--10--9--9--10~--14-10-
A ------------10~~------10-----------------------------------------12--10~~----10------------------------------
F ------------------11------------------------------------------------------11---------------------------------
C -------------------------------------------------------------------------------------------------------------
G -------------------------------------------------------------------------------------------------------------
C -------------------------------------------------------------------------------------------------------------

D --9-10-9-10-9--------------
A --------------12-----------
F -----------------11~~~~----
C ---------------------------
G ---------------------------
C ---------------------------
Добавлено: 29.08.2015
Другие материалы по этой песне:

Страница создана 29.08.2015
http://primanota.ru/august-burns-red/identity-chords.htm
Привет, Гость.
Предлагаем пройти революционный курс по гитаре.
Подарок от PrimaNota.Ru, забирай!