PrimaNota.ru - самый крупный в мире бесплатный архив песенных текстов, аккордов, табулатур и нот


August Burns Red - Separating The Seas - таба, видео

Регистрация Запомнить меня
Войти через:  Facebook Google Twitter Vk Yandex Mail.ru

August Burns Red - Separating The Seas - таба, видео

Печатать
Просмотров: 82
[Separating The Seas]
[August Burns Red]
[Found In Far Away Places]

Tuning: CGCFAD (Drop C)
joshuaoliveira@hotmail.com

[Riff 1] - [00:00] - [00:51] - [x8]
- ------------------------------------------------------------------
- -0--0------------0--0------------0--0---------------0~------0~----
- -0--0------------0--0------------0--0---------------0~------0~----
- -2--2------------2--2------------1--1------------5~-5~-5-4~-4~-4--
- -2--2--2-2-2222222--2--2-2-2222222--2--2-2-2222223~----3-2~----2--
- -2--2--2-2-2222222--2--2-2-2222221--1--1-1-1111115~----5-4~----4--
PM       ..........      ..........      ..........

[Riff 2] - [00:25] - [00:54] - [x4]
- ------------------------------------------------------------------
- -17--------------------------------------16-----------------------
- -19b-------------------------------------19b-------------16br-----
- ------------------------------------------------------------------
- ------------------------------------------------------------------
- ------------------------------------------------------------------

[Riff 3, Guitar 1 & 2] - [00:51] - [00:56]
- ------------------------------------------------------------------
- ------------------------------------------------------------------
- ---------------------------------------------------------4--------
- -------------------------------2h4p2---2---2---2h4p2-4h5---5-4----
- -3p2---2---2---2h3p2---2---2-----------------------------------2--
- -----2---2---2-------2---2---2-------2---2---2--------------------
PM     .   .   .       .   .   .       .   .   .
- ------------------------------------------------------------------
- ------------------------------------------------------------------
- ------------------------------------------------------------------
- -2~---------------------------------------------------------------
- -2~------------------------------2--------------------------------
- -2~------------------------------2--------------------------------
PM                                 .


[Riff 4, Guitar 1 & 2] - [00:56] - [01:14]
- ------------------------------------------------------------------
- ------------------------------------------------------------------
- -------------------------4---------------------4------------------
- -----------4p2---4---5-------5---4p2---4---5-------5---4-5-4---4--
- -3p2---2-----------------------------------------------------5----
- -----2---2-----2---2---2---2---2-----2---2---2---2---2------------
PM     .   .     .   .   .   .   .     .   .   .   .   .
- ------------------------------------------------------------------
- ------------------------------------------------------------------
- -------------------------4---------------------4------------------
- -----------4p2---4---5-------5---4p2---4---5-------5---4-5-4---4--
- -3p2---2-----------------------------------------------------5----
- -----2---2-----2---2---2---2---2-----2---2---2---2---2------------
PM     .   .     .   .   .   .   .     .   .   .   .   .


- ------------------------------------------------------------------
- -------------------------------------------------3----------------
- -----------5p4-------5---4-------5p4-------5p4-----5-4---4-5-4----
- -5p0---2---------5-----------5---------5---------------5-------4--
- -----3---3-----3---3---3---3---3-----3---3-----3------------------
- ------------------------------------------------------------------
PM     .   .     .   .   .   .   .     .   .     .
- ------------------------------------------------------------------
- -------------------------------------------------3----------------
- -----------5p4-------5---4-------5p4-------5p4-----5-4---4-5-4----
- -5p0---2---------5-----------5---------5---------------5-------4--
- -----3---3-----3---3---3---3---3-----3---3-----3------------------
- ------------------------------------------------------------------
PM     .   .     .   .   .   .   .     .   .     .


- ------------------------------------------------------------------
- ------------------------------------------------------------------
- -------------------------4---------------------4------------------
- -----------4p2---4---5-------5---4p2---4---5-------5---4-5-4---4--
- -3p2---2-----------------------------------------------------5----
- -----2---2-----2---2---2---2---2-----2---2---2---2---2------------
PM     .   .     .   .   .   .   .     .   .   .   .   .
- ------------------------------------------------------------------
- -------------------------3---------------------3------------------
- -----------4-----4---5-------5---4-----4---5-------5---4-5-4---4--
- -4p2---2-----5---------------------5-------------------------5----
- ------------------------------------------------------------------
- -----2---2-----2---2---2---2---2-----2---2---2---2---2------------
PM     .   .     .   .   .   .   .     .   .   .   .   .


- ------------------------------------------------------------------
- -------------------------------------------------3-3-3-3-3\-------
- -------------------------------------------------4-4-4-4-4\-------
- -5p0---2---5p0---2---5---5---2---5p0---2---5p0---5-5-5-5-5\-------
- -----3---3-----3---3---3---3---3-----3---3-----3-3-3-3-3-3\-------
- ------------------------------------------------------------------
PM     .   .     .   .   .   .   .     .   .     .
- ------------------------------------------------------------------
- -------------------------------------------------3-3-3-3-3\-------
- -5p4-------5p4-------5---4-------5p4-------5p4---4-4-4-4-4\-------
- -------5---------5-----------5---------5---------5-5-5-5-5\-------
- -----3---3-----3---3---3---3---3-----3---3-----3-3-3-3-3-3\-------
- ------------------------------------------------------------------


[Riff 5a] - [01:14] - [01:33]
- ---------------------------------------------------------------------------------------
- ---------------------------------------------------------------------------------------
- ---------------------------------------------------------------------------------------
- ---------------------------------------------------------------------------------------
- -2-2---2-----2-2---2-----22222-------2-2---222-2-2-2---2-----2-2----2-----22222-2-2-2--
- -2-2---2-----2-2---2-----22222-------2-2---222-2-2-2---2-----2-2----2-----22222-2-2-2--
PM .....................................................................................

- ---------------------------------------------------------------------------------------
- ---------------------------------------------------------------------------------------
- ---------------------------------------------------------------------------------------
- ---------------------------------------------------------------------------------------
- -2-2---2-----2-2---2-----22222-------2-2---222-2-2-2---2-----2-2----2-----22222-2-2-2--
- -2-2---2-----2-2---2-----22222-------2-2---222-2-2-2---2-----2-2----2-----22222-2-2-2--
PM .....................................................................................

- ------------------------------------------------------------------
- ------------------------------------------------------------------
- ------------------------------------------------------------------
- ------------------------------------------------------------------
- -2-2---2-----2-2---2-----22222-------2-2---222-2-2-2---2-----2-2--
- -2-2---2-----2-2---2-----22222-------2-2---222-2-2-2---2-----2-2--
PM ................................................................

[Riff 5b] - [01:!4] - [01:33] - [x4]
- ------------------------------------------------------------------
- -5-5-5-5-5-5-5-5-5-5-5-5-5-5-5-5-4-4-4-4-4-4-4-4-4-4-4-4-4-4-4-4--
- -4-4-4-4-4-4-4-4-4-4-4-4-4-4-4-4-4-4-4-4-4-4-4-4-5-5-5-5-5-5-5-5--
- ------------------------------------------------------------------
- ------------------------------------------------------------------
- ------------------------------------------------------------------

[Riff 6a] - [01:33] - [01:52]
- ------------------------------------------------------------------
- ------------------------------------------------------------------
- ------------------------------------------------------------------
- ---------9---------------9---------------10--------------10-------
- -5-5-5-5-5-5-5-5-555-5-5-5-5-5-5-7-7-7-7-7-7-7-7-777-7-7-7-7-7-7--
- -5-5-5-5-5-5-5-5-555-5-5-5-5-5-5-7-7-7-7-7-7-7-7-777-7-7-7-7-7-7--
PM .......   .............   .............   .............   .....

- ------------------------------------------------------------------
- ------------------------------------------------------------------
- ------------------------------------------------------------------
- ---------9---------------9---------------10--------------101010~--
- -5-5-5-5-5-5-5-5-555-5-5-5-5-5-5-7-7-7-7-7-7-7-7-777-7-7-7-7-7~---
- -5-5-5-5-5-5-5-5-555-5-5-5-5-5-5-7-7-7-7-7-7-7-7-777-7-7-7-7-7~---
PM .......   .............   .............   .............

- ------------------------------------------------------------------
- ------------------------------------------------------------------
- ------------------------------------------------------------------
- -9(x16)----------10(x16)---------14(x16)---------16(x16)----------
- -5---------------7---------------10--------------12---------------
- -5---------------7---------------10--------------12---------------

[Riff 6b] - [01:33] - [01:52]
- -------------------------------------------------------------------------------------
- -----------15----------------------------------------15------15br--------------------
- ---------------------------------14v--16v------------------------------17-16v--16----
- -17v----17-----17--17\14/17v--17-----------17v----17-----17--------------------------
- -------------------------------------------------------------------------------------
- -------------------------------------------------------------------------------------

- ----------------------------------------------------------15----------------------15/17----17/19--
- -------15-17-15----------------15-17-15-------------15-17----17-15----15----15-17-------20--------
- ----16----------16-14-16----16----------16-14-16-16----------------16----16-----------------------
- -17----------------------17-----------------------------------------------------------------------
- --------------------------------------------------------------------------------------------------
- --------------------------------------------------------------------------------------------------

- -20-20-20-19-19-19-------15--/22~----22b--22--20-17h19p17----17-------------------------------
- -------------------15h17----------------------------------20----20-19-20-19-17v---------------
- ----------------------------------------------------------------------------------------------
- ----------------------------------------------------------------------------------------------
- ----------------------------------------------------------------------------------------------
- ----------------------------------------------------------------------------------------------

clean

[Riff 7] - [01:52] - [03:05] - [x15]
- ----------------------------------
- -----5-------5-------4------------
- -4---4---4---4---4---4---4--------
- -2-------2-------1-------1---4----
- -----------------------------2----
- ----------------------------------

[Riff 1] - [03:05] - [03:30] - [x4]

[Riff 8] - [03:04] - [03:34]
- -7/------24(x32)-----------------23(x16)---------19(x8)--19br(x8)-
- ------------------------------------------------------------------
- ------------------------------------------------------------------
- ------------------------------------------------------------------
- ------------------------------------------------------------------
- ------------------------------------------------------------------
AP         ........................................................

- -24(x32)-----------------23(x16)---------19(x8)---------
- -------------------------------------------------19(x4)-
- --------------------------------------------------------
- --------------------------------------------------------
- --------------------------------------------------------
- --------------------------------------------------------
AP ......................................................

- ------------------------------------------------------------------
- -17--------------------------------------16-----------------------
- -19b-------------------------------------19b-------------16br-----
- ------------------------------------------------------------------
- ------------------------------------------------------------------
- ------------------------------------------------------------------

- ------------------------------------------------------------------------------------------
- -17--------------------------------------16-----------------------------------------------
- -19b-------------------------------------19b-------------16br-----------------------------
- ------------------------------------------------------------------16v----\14~-------------
- ------------------------------------------------------------------------------------------
- ------------------------------------------------------------------------------------------

[Riff 8] - [03:34] - [03:30] - [04:20]
- ------------------------------------------------------------------
- ------------------------------------------------------------------
- ---------------------------------------------------------------0--
- -------------------------------------------------------------4~---
- -2222222---22-22---22222---2222222222222---22-22---22222-222------
- -2222222---22-22---22222---2222222222222---22-22---22222-444------
PM ................................................................

- ------------------------------------------------------------------
- ------------------------------------------------------------------
- ---------------------------------------------------------------0--
- -------------------------------------------------------------4~---
- -2222222---22-22---22222---2222222222222---22-22---22222-222------
- -2222222---22-22---22222---2222221111111---11-11---44444-444------
PM ................................................................

- ------------------------------------------------------------------
- ------------------------------------------------------------------
- ---------------------------------------------------------------0--
- -------------------------------------------------------------4~---
- -2222222---22-22---22222---2222222222222---22-22---22222-222------
- -2222222---22-22---22222---2222221111111---11-11---44444-444------
PM ................................................................

- ------------------------------------------------------------------
- ------------------------------------------------------------------
- ---------------------------------------------------------------0--
- -------------------------------------------------------------4~---
- -2222222---22-22---22222---2222222222222---22-22---22222-222------
- -2222222---22-22---22222---2222221111111---11-11---44444-444------
PM ................................................................

- ------------------------------------------------------------------
- ------------------------------------------------------------------
- -----------------------------------------------------0-------0----
- ---------------------------------1~----------------4~--4---4---4--
- -2222222---22-22---22222---2222222~--------------2-------2--------
- -2222222---22-22---22222---2222221~-------------------------------
PM ................................

- ------------------------------------------------------------------
- ------------------------------------------------------------------
- ------------------------------------------------------------------
- -2~---------------------------------------------------------------
- -2~---------------------------------------------------------------
- -2~---------------------------------------------------------------

[Riff 9] - [03:50] - [04:20]
- -12-12-12----------------12-12-12----------------------------------------------------------------
- ----------13-13-13-12-12----------13-13-13-12-12-------------------------13-13-13-12-12-12-------
- -------------------------------------------------11-11-11-12-12-12-14-14-------------------------
- -------------------------------------------------------------------------------------------13-13-
- -------------------------------------------------------------------------------------------------
- -------------------------------------------------------------------------------------------------

- -12-12-12----------------14-14-14----------------15br--------------------------12~---------------
- ----------13-13-13-12-12----------13-13-13-12-12-------------------------------------------------
- -------------------------------------------------------------------------------------------------
- -------------------------------------------------------------------------------------------------
- -------------------------------------------------------------------------------------------------
- -------------------------------------------------------------------------------------------------

[Symbols]

PM... Palm Mute notes with (...) under them
AP... Alternate Pick notes with (...) under them
h     Hammer On
p     Pull Off
[ ]   Harmonic
/     Slide Up
\     Slide Down
x     Dead Note
b     Bend
p     Pre-Bend
r     Release Bend
(x )  Play Notes x amount of times
~     Let Ring
/ 3 \ Notes are triplets (3 notes in the space of two)
w\    Whammy Bar Down
w/    Whammy Bar Up
T     Right Hand Tap

:)
Добавлено: 25.10.2015
Другие материалы по этой песне:

Страница создана 25.10.2015
http://primanota.ru/august-burns-red/separating-seas-chords.htm
Привет, Гость.
Предлагаем пройти революционный курс по гитаре.
Подарок от PrimaNota.Ru, забирай!