PrimaNota.ru - самый крупный в мире бесплатный архив песенных текстов, аккордов, табулатур и нот


August Burns Red - Twenty-one Grams - таба, видео

Регистрация Запомнить меня
Войти через:  Facebook Google Twitter Vk Yandex Mail.ru

August Burns Red - Twenty-one Grams - таба, видео

Печатать
Просмотров: 54
[Twenty-One Grams]
[August Burns Red]
[Found In Far Away Places]

Tuning: B Gb B E Ab Db (Drop B / 1.5 Steps Down From Drop D)
joshuaoliveira@hotmail.com

[Riff 1] - [00:00] - [00:21]
- -----------------------------------------------------------------
- -------------------------6-6-6-6-6\------------------------6-----
- -------------------------9-9-9-9-9\------------7\2-------9-----6-
- -12\-----0-----7---3-------------------------------3/7-------7---
- -12\-000-0-0-0-5-0-1-0-0-------------00000-0-0-------------------
- -12\-000-0-0-0-7-0-3-0-0-------------00000-0-0---------0---------
PM     ...   ...   .   ...             .........         .     .

- ---------------------------------------------------------------------
- -------------------------6-6-6-6-----------------------------6-------
- -------------------------9-9-9-9-------------------------------9---6-
- -12\-----0-----7---3-----------------7-----3-----7-----2---------7---
- -12\-000-0-0-0-5-0-1-0-0---------0-0-5-0-0-1-0-0-5-0-0-0-0-0---------
- -12\-000-0-0-0-7-0-3-0-0---------0-0-7-0-0-3-0-0-7-0-0-2-0-0---------
PM     ...   ...   .   ...         ...   ...   ...   ...   ...

- -----------------------------------------------------------------
- -------------------------6-6-6-6-6\------------------------6-----
- -------------------------9-9-9-9-9\------------7\2-------9-----6-
- -12\-----0-----7---3-------------------------------3/7-------7---
- -12\-000-0-0-0-5-0-1-0-0-------------00000-0-0-------------------
- -12\-000-0-0-0-7-0-3-0-0-------------00000-0-0---------0---------
PM     ...   ...   .   ...             .........         .     .

- ---------------------------------------------------------------------
- -------------------------6-6-6-6-------------------------------------
- -------------------------9-9-9-9-------------------------------------
- -12\-----0-----7---3-----------------7-----3-----7-----2-----5-5-5---
- -12\-000-0-0-0-5-0-1-0-0---------0-0-5-0-0-1-0-0-5-0-0-0-0-0-3-3-3---
- -12\-000-0-0-0-7-0-3-0-0---------0-0-7-0-0-3-0-0-7-0-0-2-0-0-5-5-5---
PM     ...   ...   .   ...         ...   ...   ...   ...   ...

[Riff 2a] - [00:21] - [00:36]
- -----------------------------------------------------------------
- -----------------------------------------------------------------
- -----------------------------------------------------------------
- -7-7-7-7-7-7-7-7-7-7-7-7-7-7-7-7-7-7-7-7-7-7-7-7-7-7-7-7-7-7-7-7-
- -5-5-5-5-5-5-5-5-5-5-5-5-5-5-5-5-5-5-5-5-5-5-5-5-5-5-5-5-5-5-5-5-
- -8-8-8-8-8-8-8-8-8-8-8-8-8-8-8-8-5-5-5-5-5-5-5-5-5-5-5-5-5-5-5-5-

- -----------------------------------------------------------------
- -----------------------------------------------------------------
- -----------------------------------------------------------------
- -7-----7-----7-7-7-----7-----7-7-7-7-7-7---------7-7-7-7---------
- -5-0-0-5-0-0-5-5-5-0-0-5-0-0-5-5-5-5-5-5---5-555-5-5-5-5---5-555-
- -7-0-0-7-0-0-7-7-7-0-0-7-0-0-7-7-3-3-3-3---3-333-3-3-3-3---3-333-
PM   ...   ...       ...   ...               .....           .....

- -----------------------------------------------------------------
- -----------------------------------------------------------------
- -----------------------------------------------------------------
- -7-7-7-7-7-7-7-7-7-7-7-7-7-7-7-7-7-7-7-7-7-7-7-7-7-7-7-7-7-7-7-7-
- -5-5-5-5-5-5-5-5-5-5-5-5-5-5-5-5-5-5-5-5-5-5-5-5-5-5-5-5-5-5-5-5-
- -8-8-8-8-8-8-8-8-8-8-8-8-8-8-8-8-5-5-5-5-5-5-5-5-5-5-5-5-5-5-5-5-

[Riff 2b] - [00:31] - [00:39]
- -----------17----13------------------------------------15b-------
- ---------------------17br----------13h15p13--15----13------------
- -10/-15br--------------------------------------------------------
- -----------------------------------------------------------------
- -----------------------------------------------------------------
- -----------------------------------------------------------------

[Riff 3] - [00:36] - [00:48]
- ---------------------------------------------------------------------------
- -----------------------------------------------------------------11-11-----
- -----------------------------------------------------------------14-14-----
- -----7-----3-----7-----2-----------3-----7-----3-----7-----2-----------12\-
- -0-0-5-0-0-1-0-0-5-0-0-0-0-0-000-7---0-0-5-0-0-1-0-0-5-0-0-0-0-0-------12\-
- -0-0-7-0-0-3-0-0-7-0-0-2-0-0-000-----0-0-7-0-0-3-0-0-7-0-0-2-0-0-------12\-
PM ...   ...   ...   ...   .......     ...   ...   ...   ...   ...

- ---------------------------------------------------------------------------
- -----------------------------------------------------------------11-11-11\-
- -----------------------------------------------------------------14-14-14\-
- -----7-----3-----7-----2-----------3-----7-----3-----7-----2---------------
- -0-0-5-0-0-1-0-0-5-0-0-0-0-0-000-7---0-0-5-0-0-1-0-0-5-0-0-0-0-0-----------
- -0-0-7-0-0-3-0-0-7-0-0-2-0-0-000-----0-0-7-0-0-3-0-0-7-0-0-2-0-0-----------
PM ...   ...   ...   ...   .......     ...   ...   ...   ...   ...

[Riff 4, Guitar 1 & 2] - [00:48] - [01:07]
- -------------------------------------------------------------------
- ---------------------------6---------------------------------------
- ---------------------------9---------------------------------------
- -------------------12\-0-------------------------------------------
- -0000000000--0000--12\-0-------0000000-----------------------------
- -0000000000--0000--12\-0-------0000000--7-7-7-7-7-7-12-12-12-8-8-8-
PM ................              ...................................
- -------------------------------------------------------------------
- ---------------------------6---------------------------------------
- ---------------------------9---------------------------------------
- -------------------12\-0-------------------------------------------
- -0000000000--0000--12\-0-------0000000-----------------------------
- -0000000000--0000--12\-0-------0000000--3-3-3-3-3-3-5--5--5--0-0-0-
PM ................              ...................................


- -----------------------------------------------------------------
- ---------------------------6-------------------------------------
- ---------------------------9-------------------------------------
- -------------------12\-0-----------------------------------------
- -0000000000--0000--12\-0-------0000000--------7h8p7-10p9p7-------
- -0000000000--0000--12\-0-------0000000--0h7h8--------------8p7p5-
PM ................              .......
- -----------------------------------------------------------------
- ---------------------------6-------------------------------------
- ---------------------------9-------------------------------------
- -------------------12\-0-----------------------------------------
- -0000000000--0000--12\-0-------0000000--------7h8p7-10p9p7-------
- -0000000000--0000--12\-0-------0000000--0h7h8--------------8p7p5-
PM ................              .......


- -------------------------------------------------------------------
- ---------------------------6---------------------------------------
- ---------------------------9---------------------------------------
- -------------------12\-0------------------------------------------- 
- -0000000000--0000--12\-0-------0000000----------------------------- let chugging ring out
- -0000000000--0000--12\-0-------0000000--7-7-7-7-7-7-12-12-12-8-8-8-
PM ................              ...................................
- -------------------------------------------------------------------
- ---------------------------6---------------------------------------
- ---------------------------9---------------------------------------
- -------------------12\-0-------------------------------------------
- -0000000000--0000--12\-0-------0000000----------------------------- let chugging ring out
- -0000000000--0000--12\-0-------0000000--3-3-3-3-3-3-5--5--5--0-0-0-
PM ................              ...................................


- ----------------------------------------------------------------
- ---------------------------6------------------------------------
- ---------------------------9---------------5h7p5p0-5h7p0-8h10p0-
- -------------------12\-0---------------5h7----------------------
- -0000000000--0000--12\-0-------0000000-------------------------- let chugging ring out
- -0000000000--0000--12\-0-------0000000--------------------------
PM ................              .......
- ----------------------------------------------------------------
- ---------------------------6------------------------------------
- ---------------------------9---------------5h7p5p0-5h7p0-8h10p0-
- -------------------12\-0---------------5h7----------------------
- -0000000000--0000--12\-0-------0000000-------------------------- let chugging ring out
- -0000000000--0000--12\-0-------0000000--------------------------
PM ................              .......


[Riff 5, Guitar 1 & 2] - [01:07] - [01:17]
- ------------------------------------------------------------------------------------
- ------------------------------------------------------------------------------------
- -3~---------------------------------------5~----------------------------------------
- -3~---------------------------------------3~----------------------------------------
- -1~---------------------------------------1~----------------------------------------
- ------------------------------------------------------------------------------------
-
- ------------------------------------------------------------------------------------
- ------------------------------------------------------------------------10----10h11-
- -10-------------10---10-------------------10-------------10---9h10p9-------10-------
- ------10h12---------------10h12----------------10h12-----------------12-------------
- --------------------------------10h12-----------------------------------------------
- ----8-------8-8----8----8-------------8-8----8-------8-8----8-----------------------
PM    .       ...    .    .             ...    .       ...    .        ..    ..


- --------------------------------------------------------------------------------------------
- --------------------------------------------------------------------------------------------
- -7~-----------------------------------------------------------------------------------------
- -7~--------------------------------------------------------0--------------------------------
- -5~--------------------------------------------------------0--------------------------------
- -----------------------------------------------------------0--------------------------------
-
- --------------------------------------------------------------------------------------------
- -10------------10---10------------------10------------10---10h11p10-------------------------
- ------9h10---------------9h10----------------9h10-------------------10p9h10-9h10p9----------
- ----0------0-0----0----0------10h12-0-0----0------0-0----0-------------------------12p10h12-
- --------------------------------------------------------------------------------------------
- --------------------------------------------------------------------------------------------
PM    .      ...    .    .            ...    .      ...    .


[Riff 6, Guitar 1 & 2] - [01:17] - [01:37]
- ------------------------------------------------------------------------------------
- ------------------------------------------------------------------------10----10h11-
- -10-------------10---10-------------------10-------------10---9h10p9-------10-------
- ------10h12---------------10h12----------------10h12-----------------12-------------
- --------------------------------10h12-----------------------------------------------
- ----8-------8-8----8----8-------------8-8----8-------8-8----8-----------------------
PM    .       ...    .    .             ...    .       ...    .        ..    ..
- ------------------------------------------------------------------------------------
- ------------------------------------------------------------------------10----10h11-
- -10-------------10---10-------------------10-------------10---9h10p9-------10-------
- ------10h12---------------10h12----------------10h12-----------------12-------------
- --------------------------------10h12-----------------------------------------------
- ----8-------8-8----8----8-------------8-8----8-------8-8----8-----------------------
PM    .       ...    .    .             ...    .       ...    .        ..    ..


- --------------------------------------------------------------------------------------------
- -10------------10---10------------------10------------10---10h11p10-------------------------
- ------9h10---------------9h10----------------9h10-------------------10p9h10-9h10p9----------
- ----0------0-0----0----0------10h12-0-0----0------0-0----0-------------------------12p10h12-
- --------------------------------------------------------------------------------------------
- --------------------------------------------------------------------------------------------
PM    .      ...    .    .            ...    .      ...    .
- --------------------------------------------------------------------------------------------
- -10------------10---10------------------10------------10---10h11p10-------------------------
- ------9h10---------------9h10----------------9h10-------------------10p9h10-9h10p9----------
- ----0------0-0----0----0------10h12-0-0----0------0-0----0-------------------------12p10h12-
- --------------------------------------------------------------------------------------------
- --------------------------------------------------------------------------------------------
PM    .      ...    .    .            ...    .      ...    .


- ------------------------------------------------------------------------------------
- ------------------------------------------------------------------------10----10h11-
- -10-------------10---10-------------------10-------------10---9h10p9-------10-------
- ------10h12---------------10h12----------------10h12-----------------12-------------
- --------------------------------10h12-----------------------------------------------
- ----8-------8-8----8----8-------------8-8----8-------8-8----8-----------------------
PM    .       ...    .    .             ...    .       ...    .        ..    ..
- ------------------------------------------------------------------------8-----8h10--
- -10-------------10---10-------------------10-------------10---8h10p8-------10-------
- ------9h10----------------9h10-----------------9h10------------------10-------------
- --------------------------------10h12-----------------------------------------------
- ------------------------------------------------------------------------------------
- ----8-------8-8----8----8-------------8-8----8-------8-8----8-----------------------
PM    .       ...    .    .             ...    .       ...    .        ..    ..


- ---------------------------------------------------------------------------------
- -10------------10---10------------------10------------10-----------------10------
- ------9h10---------------9h10----------------9h10----------10p9-------------9h10-
- ----0------0-0----0----0------10h12-0-0----0------0-0----0------12-10-12---------
- ---------------------------------------------------------------------------------
- ---------------------------------------------------------------------------------
PM    .      ...    .    .            ...    .      ...    .      ........
- -8-------------8----8-------------------8-------------8------------------8-------
- ------8h10---------------8h10----------------8h10----------10p8-------------8h10-
- ------------------------------9h10------------------------------10-9--10---------
- ----0------0-0----0----0------------0-0----0------0-0----0-----------------------
- ---------------------------------------------------------------------------------
- ---------------------------------------------------------------------------------
PM    .      ...    .    .            ...    .      ...    .      ........


[Riff 8, Guitar 1 & 2] - [01:37] - [01:57]
- -------------------------------------------------------------------
- -------------------------------------------6-----6-6-6-8-8-8-10-10-
- ----------------/7-7-7-----------------------7---------------------
- -----------7-----------7-7-7-----------7-------7-------------------
- -3/5---5-----5---------------8-8-5/8-8---8-------------------------
- -----8---8-----8---------------------------------------------------
PM     .   .     .                     .   .
- -------------------------------------------------------------------
- -------------------------------------------6-----------------------
- ----------------/7-7-7-----------------------7---7-7-7-9-9-9-10-10-
- -----------7-----------7-7-7-----------7-------7-------------------
- -3/5---5-----5---------------8-8-5/8-8---8-------------------------
- -----8---8-----8---------------------------------------------------
PM     .   .     .                     .   .



- ----------------------------------------------------------------------------
- -10br----------------10br---------------------------------------------------
- -------10br---------------10br----------------------------------9br-----7~-- (hold into next section)
- ------------12-10-12-----------12-10-12-------------------------------------
- ----------------------------------------12/---15\---8~----------------------
- ----------------------------------------------------------------------------
-
- ---------------------5~----5~-------------------------------------------
- ---------------------6~----6~-----------6~----6~----6-6-6-6-6-6-6-6-6-6-
- ---------------------7~----7~-----------5~----5~----5-5-5-5-5-5-5-5-5-5-
- -------0~------------7~----7~-----------3~----3~----3-3-3-3-3-3-3-3-3-3-
- -0-0-0-0~------------5~----5~-----------3~----3~----3-3-3-3-3-3-3-3-3-3-
- -0-0-0-0~-------------------------------3~----3~----3-3-3-3-3-3-3-3-3-3-
PM .....


- -------------------------------------------------------------------
- -------------------------------------------6-----6-6-6-8-8-8-10-10-
- ----------------/7-7-7-----------------------7---------------------
- -----------7-----------7-7-7-----------7-------7-------------------
- -3/5---5-----5---------------8-8-5/8-8---8-------------------------
- -----8---8-----8---------------------------------------------------
PM     .   .     .                     .   .
- -------------------------------------------------------------------
- -------------------------------------------6-----------------------
- ----------------/7-7-7-----------------------7---7-7-7-9-9-9-10-10-
- -----------7-----------7-7-7-----------7-------7-------------------
- -3/5---5-----5---------------8-8-5/8-8---8-------------------------
- -----8---8-----8---------------------------------------------------
PM     .   .     .                     .   .


- -12br---------------12br---------------10h13p10----------------------13h15p13-15br-p13-----
- -------15-----------------15--------------------11p10----------10h14-------------------15~-
- -----------14----14-----------14----14----------------12\10/12-----------------------------
- --------------15-----------------15--------------------------------------------------------
- -------------------------------------------------------------------------------------------
- -------------------------------------------------------------------------------------------
-
- -5~----5~------------------------------------------------------------------------------
- -6~----6~------------------------------------------------------------------------------
- -7~----7~------------------------------------------------------------------------------
- -7~----7~-----------0~----0~-----------2~----------2~-------2-----2~----------3~-------
- -5~----5~-----------0~----0~-----------0~----------0~-------0-----2~----------3~-------
- --------------------0~----0~--------------------------------------2~----------3~-------


[Riff 9, Guitar 1 & 2] - [01:57] - [02:16]
- -------------------------------------------------------------------------
- -------------------------------------------------------------------------
- -7-7---10---9h10---7---10p9h10---7---7-7---10---9h10---7---10p9h10---7---
- -----0----0------0---0---------0---0-----0----0------0---0---------0---0-
- -------------------------------------------------------------------------
- -------------------------------------------------------------------------
PM     .    .      .   .         .   .     .    .      .   .         .   .
- -------------------------------------------------------------------------
- -------------------------------------------------------------------------
- -7-7---10---9h10---7---10p9h10---7---7-7---10---9h10---7---10p9h10---7---
- -----0----0------0---0---------0---0-----0----0------0---0---------0---0-
- -------------------------------------------------------------------------
- -------------------------------------------------------------------------
PM     .    .      .   .         .   .     .    .      .   .         .   .


- --------------------------------------------------------------------------
- --------------------------------------------------------------------------
- -7-7---10---9h10---7---10p9h10---7---7-7---10---9h10---7---10p9h10---9h10-
- -----------------------------------------0----0------0---0---------7------
- --------------------------------------------------------------------------
- -----8----8------8---8---------8---8--------------------------------------
PM     .    .      .   .         .   .     .    .      .   .         .
- --------------------------------------------------------------------------
- --------------------------------------------------------------------------
- -7-7---10---9h10---7---10p9h10---7---7-7---10---9h10---7---10p9h10---9h10-
- -----------------------------------------0----0------0---0---------7------
- --------------------------------------------------------------------------
- -----8----8------8---8---------8---8--------------------------------------
PM     .    .      .   .         .   .     .    .      .   .         .


- -------------------------------------------------------------------------------
- -------------------------------------------------------------------------------
- -7--7----10---9h10---7----10p9h10---7----7--7----10---9h10---7----10p9h10---7--
- -------0----0------0----0---------0----0-------0----0------0----0---------0----
- -------------------------------------------------------------------------------
- -------------------------------------------------------------------------------
PM       .    .      .    .         .    .       .    .      .    .         .
- -------------------------------------------------------------------------------
- ---------10---8h10--------10p8h10----------------10---8h10--------10p8h10------
- -10-10---------------10-------------10---10-10---------------10-------------10-
- -------0----0------0----0---------0----0-------0----0------0----0---------0----
- -------------------------------------------------------------------------------
- -------------------------------------------------------------------------------
PM       .    .      .    .         .    .       .    .      .    .         .


- -------------------------------------------------------------------------------
- -------------------------------------------------------------------------------
- -7--7----10---9h10---7----10p9h10---7----7--7----10---9h10---7----10p9h10---7--
- -----------------------------------------------0----0------0----0---------0----
- -------------------------------------------------------------------------------
- -------8----8------8----8---------8----8---------------------------------------
PM       .    .      .    .         .    .       .    .      .    .         .
- -------------------------------------------------------------------------------
- ---------10---8h10--------10p8h10----------------10---8h10--------10p8h10------
- -10-10---------------10-------------10---10-10---------------10-------------10-
- -----------------------------------------------0----0------0----0---------0----
- -------------------------------------------------------------------------------
- -------8----8------8----8---------8----8---------------------------------------
PM       .    .      .    .         .    .       .    .      .    .         .


[Riff 10a] - [02:16] - [02:54]
- -----------------------------------------------------------------
- -----------------------------------------------------------------
- -----------------------------------------------------------------
- -------7~--------------7~--------------7~--------------7~----7br-
- ----5~--------------5~--------------5~-------5\-----5~-----5~----
- -8~--------------5~--------------7~--------------3~--------------

- -----------------------------------------------------------------
- -----------------------------------------------------------------
- -----------------------------------------------------------------
- -------7~--------------7~--------------7~--------------7~----7br-
- ----5~--------------5~--------------5~-------5\-----5~-----5~----
- -8~--------------5~--------------7~--------------3~--------------

- -----------------------------------------------------------------
- -----------------------------------------------------------------
- -----------------------------------------------------------------
- -------7~--------------7~--------------7~--------------7~----7br-
- ----5~--------------5~--------------5~-------5\-----5~-----5~----
- -8~--------------5~--------------7~--------------3~--------------

- ---------------------------------
- ---------------------------------
- ---------------------------------
- -------7~--------------7~--------
- ----5~--------------5~-----------
- -8~--------------5~--------------

[Riff 10b] - [02:38] - [02:54]
- -15------15------15------17------17------17------17------18------
- ----18------18------18------18------18------18------18------18---
- -------17------17------17------17------17------17------17------17
- -----------------------------------------------------------------
- -----------------------------------------------------------------
- -----------------------------------------------------------------

- -15------15------17------18-------
- ----18------18------18------18----
- -------17------17------17------17-
- ----------------------------------
- ----------------------------------
- ----------------------------------

[Riff 11a] - [02:52] - [02:57]
- -17br------------17~-------------
- ---------------------------------
- ---------------------------------
- ---------------------------------
- ---------------------------------
- ---------------------------------

[Riff 11b, Guitar 1 & 2] - [02:54] - [03:10]
- ------------------------------------------------------------------------
- ---------------------------------------------------------------11-11-11-
- ---------------------------------------------------------------14-14-14-
- -----7-----3-----7-----3-----------3-----7-----3-----7-----3------------
- -0-0-5-0-0-1-0-0-5-0-0-1-0-0-000-7---0-0-5-0-0-1-0-0-5-0-0-1-0----------
- -0-0-7-0-0-3-0-0-7-0-0-3-0-0-000-----0-0-7-0-0-3-0-0-7-0-0-3-0----------
PM ...   ...   ...   ...   .......     ...   ...   ...   ...   .
- ------------------------------------------------------------------------
- ---------------------------------------------------------------8--8--8--
- ---------------------------------------------------------------10-10-10-
- -----7-----3-----7-----3-----------3-----7-----3-----7-----3------------
- -0-0-5-0-0-1-0-0-5-0-0-1-0-0-000-7---0-0-5-0-0-1-0-0-5-0-0-1-0----------
- -0-0-7-0-0-3-0-0-7-0-0-3-0-0-000-----0-0-7-0-0-3-0-0-7-0-0-3-0----------
PM ...   ...   ...   ...   .......     ...   ...   ...   ...   .


- ------------------------------------------------------------------------
- ---------------------------------------------------------------11-11-11-
- ---------------------------------------------------------------14-14-14-
- -----7-----3-----7-----3-----------3-----7-----3-----7-----3------------
- -0-0-5-0-0-1-0-0-5-0-0-1-0-0-000-7---0-0-5-0-0-1-0-0-5-0-0-1-0----------
- -0-0-7-0-0-3-0-0-7-0-0-3-0-0-000-----0-0-7-0-0-3-0-0-7-0-0-3-0----------
PM ...   ...   ...   ...   .......     ...   ...   ...   ...   .
- ------------------------------------------------------------------------
- ---------------------------------------------------------------8--8--8--
- ---------------------------------------------------------------10-10-10-
- -----7-----3-----7-----3-----------3-----7-----3-----7-----3------------
- -0-0-5-0-0-1-0-0-5-0-0-1-0-0-000-7---0-0-5-0-0-1-0-0-5-0-0-1-0----------
- -0-0-7-0-0-3-0-0-7-0-0-3-0-0-000-----0-0-7-0-0-3-0-0-7-0-0-3-0----------
PM ...   ...   ...   ...   .......     ...   ...   ...   ...   .


[Riff 12] - [03:10] - [03:27]
- ---------------------------------------------------------------------
- ------------------------------------------------------------11-11-11-
- ------------------------------------------------------------14-14-14-
- -12\---0---0-12\----0---0-0-------12\---0---0-12\---0---0------------
- -12\---0---0-12\----0---0-0---000-12\---0---0-12\---0---0-0----------
- -12\---0---0-12\----0---0-0---000-12\---0---0-12\---0---0-0----------
PM                              ...                         .

- -------------------------------------------------------------------
- ------------------------------------------------------------6~-----
- ----------------------------------------------------------9~--9~---
- -12\---0---0-12\----0---0---------12\---0---0-12\---0---7~------7~-
- -12\---0---0-12\----0---0-0-0-000-12\---0---0-12\---0--------------
- -12\---0---0-12\----0---0-0-0-000-12\---0---0-12\---0--------------
PM                          .......                         

- ---------------------------------------------------------------------
- -------------------------11-11-11-11---------------------------6-----
- -------------------------14-14-14-14---------------7\2-------9-----6-
- -12\-----0-----7---3-----------------12\-----0---------3/7-------7---
- -12\-000-0-0-0-5-0-1-0-0-------------12\-00000-0-0-------------------
- -12\-000-0-0-0-7-0-3-0-0-------------12\-00000-0-0---------0---------
PM     ...   ...   .   ...                 ....  ...         .     .

- -------------------------------------------------------------------------
- -------------------------11-11-11-11-------------------------------------
- -------------------------14-14-14-14-------------------------------------
- -12\-----0-----7---3---------------------7-----3-----7-----2-----5-5-5---
- -12\-000-0-0-0-5-0-1-0-0-------------0-0-5-0-0-1-0-0-5-0-0-0-0-0-3-3-3---
- -12\-000-0-0-0-7-0-3-0-0-------------0-0-7-0-0-3-0-0-7-0-0-2-0-0-5-5-5---
PM     ...   ...   .   ...             ...   ...   ...   ...   ...

[Riff 13a] - [03:27] - [03:47]
- -----------------------------------------------------------------
- -----------------------------------------------------------------
- -3~------------------------------5~------------------------------
- -3~------------------------------3~------------------------------
- -1~------------------------------1~------------------------------
- -----------------------------------------------------------------

- -----------------------------------------------------------------
- -5~--------------------------------------------------------------
- -7~--------------------------------------------------------------
- -7~------------------------------3~------------------------------
- -5~------------------------------3~------------------------------
- ---------------------------------3~------------------------------

- -----------------------------------------------------------------
- -----------------------------------------------------------------
- -3-------------------------------5-------------------------------
- -3---3-3-3-3-3-3-3-3-3-3-3-3-3-3-3---3-3-3-3-3-3-3-3-3-3-3-3-3-3-
- -1---1-1-1-1-1-1-1-1-1-1-1-1-1-1-1---1-1-1-1-1-1-1-1-1-1-1-1-1-1-
- -----------------------------------------------------------------
PM     ...........................     ...........................

- -----------------------------------------------------------------
- -5---------------5-5-5-5-5-5-5-5---------------------------------
- -7---------------7-7-7-7-7-7-7-7---------------------------------
- -7---7-7-7-7-7-7-7-7-7-7-7-7-7-7-7-7-7-7-7-7-7-7-7---------------
- -5---5-5-5-5-5-5-5-5-5-5-5-5-5-5-3-3-3-3-3-3-3-3-3---------------
- ---------------------------------3-3-3-3-3-3-3-3-3---------------
PM     ........... (gradually lessen palm mute)

[Riff 13b] - 03:27] - [03:47]
- ----------------------------------------
- -6~------6~------8~---------10~---------
- ----7~------7~------10~---------10~-----
- -------8~------8~-------12~---------10~-
- ----------------------------------------
- ----------------------------------------

- ------------------------------------------------------
- 10~---------10~--------10~---------10br---------------
- ----10~---------10~--------10~-----------10-----------
- --------10~---------10~--------10~-----------12-10-12-
- ------------------------------------------------------
- ------------------------------------------------------

- --------------------------------------------------------------------------------
- ----------------------------------------------------------10h11p10--------------
- -10v--------------10h12p10--------------12br--10-------------------10-----------
- -------12----8/10----------12-----------------------10/12--------------12p10h12-
- -------------------------------13p12h13-----------------------------------------
- --------------------------------------------------------------------------------

- -------------------------------------------------------------------------------------------
- -10br---------------10br---------------10br---------------10h11p10-------------------------
- -------10-----------------10-----------------10--------------------10p9h10-9h10p9----------
- -----------12-10-12-----------12-10-12-----------12-10-12-------------------------12p10h12-
- -------------------------------------------------------------------------------------------
- -------------------------------------------------------------------------------------------

[Riff 14a] - [03:47] - [04:53]
- -----------------------------------------------------------------
- -3-3-3-3-3-3-3-3-3-3-3-3-3-3-3-3-3-3-3-3-3-3-3-3-3-3-3-3-5-5-5-5-
- -3-3-3-3-3-3-3-3-3-3-3-3-3-3-3-3-3-3-3-3-3-3-3-3-3-3-3-3-5-5-5-5-
- -3-3-3-3-3-3-3-3-3-3-3-3-3-3-3-3-3-3-3-3-3-3-3-3-3-3-3-3-5-5-5-5-
- -1-1-1-1-1-1-1-1-1-1-1-1-1-1-1-1-1-1-1-1-1-1-1-1-1-1-1-1-3-3-3-3-
- -----------------------------------------------------------------

- -----------------------------------------------------------------
- -6-6-6-6-6-6-6-6-6-6-6-6-6-6-6-6---------------------------------
- -7-7-7-7-7-7-7-7-7-7-7-7-7-7-7-7---------------------------------
- -7-7-7-7-7-7-7-7-7-7-7-7-7-7-7-7-7-7-7-7-7-7-7-7-7-7-7-7-7-7-7-7-
- -5-5-5-5-5-5-5-5-5-5-5-5-5-5-5-5-3-3-3-3-3-3-3-3-3-3-3-3-3-3-3-3-
- ---------------------------------3-3-3-3-3-3-3-3-3-3-3-3-3-3-3-3-

- -----------------------------------------------------------------
- -3-3-3-3-3-3-3-3-3-3-3-3-3-3-3-3-3-3-3-3-3-3-3-3-3-3-3-3-5-5-5-5-
- -3-3-3-3-3-3-3-3-3-3-3-3-3-3-3-3-3-3-3-3-3-3-3-3-3-3-3-3-5-5-5-5-
- -3-3-3-3-3-3-3-3-3-3-3-3-3-3-3-3-3-3-3-3-3-3-3-3-3-3-3-3-5-5-5-5-
- -1-1-1-1-1-1-1-1-1-1-1-1-1-1-1-1-1-1-1-1-1-1-1-1-1-1-1-1-3-3-3-3-
- -----------------------------------------------------------------

- -----------------------------------------------------------------
- -6-6-6-6-6-6-6-6-6-6-6-6-6-6-6-6---------------------------------
- -7-7-7-7-7-7-7-7-7-7-7-7-7-7-7-7---------------------------------
- -7-7-7-7-7-7-7-7-7-7-7-7-7-7-7-7-7-7-7-7-7-7-7-7-7-7-7-7-7-7-7-7-
- -5-5-5-5-5-5-5-5-5-5-5-5-5-5-5-5-3-3-3-3-3-3-3-3-3-3-3-3-3-3-3-3-
- ---------------------------------3-3-3-3-3-3-3-3-3-3-3-3-3-3-3-3-

- -----------------------------------------------------------------
- -3-3-3-3-3-3-3-3-3-3-3-3-3-3-3-3-3-3-3-3-3-3-3-3-3-3-3-3-5-5-5-5-
- -3-3-3-3-3-3-3-3-3-3-3-3-3-3-3-3-3-3-3-3-3-3-3-3-3-3-3-3-5-5-5-5-
- -3-3-3-3-3-3-3-3-3-3-3-3-3-3-3-3-3-3-3-3-3-3-3-3-3-3-3-3-5-5-5-5-
- -1-1-1-1-1-1-1-1-1-1-1-1-1-1-1-1-1-1-1-1-1-1-1-1-1-1-1-1-3-3-3-3-
- -----------------------------------------------------------------

- -----------------------------------------------------------------
- -6-6-6-6-6-6-6-6-6-6-6-6-6-6-6-6---------------------------------
- -7-7-7-7-7-7-7-7-7-7-7-7-7-7-7-7---------------------------------
- -7-7-7-7-7-7-7-7-7-7-7-7-7-7-7-7-7-7-7-7-7-7-7-7-7-7-7-7-7-7-7-7-
- -5-5-5-5-5-5-5-5-5-5-5-5-5-5-5-5-3-3-3-3-3-3-3-3-3-3-3-3-3-3-3-3-
- ---------------------------------3-3-3-3-3-3-3-3-3-3-3-3-3-3-3-3-

acoustic starts

- -----------------------------------------------------------------
- -3---3-3---3-3---3-3---3-3---3-3-3---3-3---3-3---3-3---3-3---3-3- 
- -3---3-3---3-3---3-3---3-3---3-3-3---3-3---3-3---3-3---3-3---3-3- 
- -3---3-3---3-3---3-3---3-3---3-3-3---3-3---3-3---3-3---3-3---3-3-
- -1---1-1---1-1---1-1---1-1---1-1-1---1-1---1-1---1-1---1-1---1-1-
- -----------------------------------------------------------------

- ----------------------------------------------------------------- 
- -6---6-6---6-6---6-6---6-6---6-6--------------------------------- 
- -7---7-7---7-7---7-7---7-7---7-7---------------------------------
- -7---7-7---7-7---7-7---7-7---7-7-7---7-7---7-7---7-7---7-7---7-7-
- -5---5-5---5-5---5-5---5-5---5-5-3---3-3---3-3---3-3---3-3---3-3-
- ---------------------------------3---3-3---3-3---3-3---3-3---3-3-

- -----------------------------------------------------------------
- -3---3-3---3-3---3-3---3-3---3-3-3---3-3---3-3---3-3---3-3---3-3-
- -3---3-3---3-3---3-3---3-3---3-3-3---3-3---3-3---3-3---3-3---3-3-
- -3---3-3---3-3---3-3---3-3---3-3-3---3-3---3-3---3-3---3-3---3-3-
- -1---1-1---1-1---1-1---1-1---1-1-1---1-1---1-1---1-1---1-1---1-1-
- -----------------------------------------------------------------

- ----------------------------------------------------------------- 
- -6---6-6---6-6---6-6---6-6---6-6--------------------------------- 
- -7---7-7---7-7---7-7---7-7---7-7---------------------------------
- -7---7-7---7-7---7-7---7-7---7-7-7---7-7---7-7---7-7---7-7---7-7-
- -5---5-5---5-5---5-5---5-5---5-5-3---3-3---3-3---3-3---3-3---3-3-
- ---------------------------------3---3-3---3-3---3-3---3-3---3-3-

- -----------------------------------------------------------------
- -3---3-3---3-3---3-3---3-3---3-3-3---3-3---3-3---3-3---3-3---3-3-
- -3---3-3---3-3---3-3---3-3---3-3-3---3-3---3-3---3-3---3-3---3-3-
- -3---3-3---3-3---3-3---3-3---3-3-3---3-3---3-3---3-3---3-3---3-3-
- -1---1-1---1-1---1-1---1-1---1-1-1---1-1---1-1---1-1---1-1---1-1-
- -----------------------------------------------------------------

- ----------------------------------------------------------------- 
- -6---6-6---6-6---6-6---6-6---6-6--------------------------------- 
- -7---7-7---7-7---7-7---7-7---7-7---------------------------------
- -7---7-7---7-7---7-7---7-7---7-7-7---7-7---7-7-7-7~--------------
- -5---5-5---5-5---5-5---5-5---5-5-3---3-3---3-3-3-3~--------------
- ---------------------------------3---3-3---3-3-3-3~--------------

- ----------------------------------------------------------------- 
- -3~--------------------------------------------------------------
- -3~--------------------------------------------------------------
- -3~--------------------------------------------------------------
- -1~--------------------------------------------------------------
- -----------------------------------------------------------------

[Riff 14b, Guitar 1 & 2] - [03:47] - [04:53]
- ------------------------------------------------------------------------------------
- ------------------------------------------------------------------------10----10h11-
- -10-------------10---10-------------------10-------------10---9h10p9-------10-------
- ------10h12---------------10h12----------------10h12-----------------12-------------
- --------------------------------10h12-----------------------------------------------
- ----8-------8-8----8----8-------------8-8----8-------8-8----8-----------------------
PM    .       ...    .    .             ...    .       ...    .        ..    ..
- ------------------------------------------------------------------------------------
- ------------------------------------------------------------------------10----10h11-
- -10-------------10---10-------------------10-------------10---9h10p9-------10-------
- ------10h12---------------10h12----------------10h12-----------------12-------------
- --------------------------------10h12-----------------------------------------------
- ----8-------8-8----8----8-------------8-8----8-------8-8----8-----------------------
PM    .       ...    .    .             ...    .       ...    .        ..    ..


- --------------------------------------------------------------------------------------------
- -10------------10---10------------------10-----------------10h11p10-------------------------
- ------9h10---------------9h10----------------9h10-----10------------10p9h10-9h10p9----------
- ----0------0-0----0----0------10h12-0-0--------------------------------------------12p10h12-
- -------------------------------------------8------8-8----8----------------------------------
- --------------------------------------------------------------------------------------------
PM    .      ...    .    .            ...    .      ...    .
- --------------------------------------------------------------------------------------------
- -10------------10---10------------------10-----------------10h11p10-------------------------
- ------9h10---------------9h10----------------9h10-----10------------10p9h10-9h10p9----------
- ----0------0-0----0----0------10h12-0-0--------------------------------------------12p10h12-
- -------------------------------------------8------8-8----8----------------------------------
- --------------------------------------------------------------------------------------------
PM    .      ...    .    .            ...    .      ...    .


- ------------------------------------------------------------------------------------
- ------------------------------------------------------------------------10----10h11-
- -10-------------10---10-------------------10-------------10---9h10p9-------10-------
- ------10h12---------------10h12----------------10h12-----------------12-------------
- --------------------------------10h12-----------------------------------------------
- ----8-------8-8----8----8-------------8-8----8-------8-8----8-----------------------
PM    .       ...    .    .             ...    .       ...    .        ..    ..
- ------------------------------------------------------------------------------------
- ------------------------------------------------------------------------10----10h11-
- -10-------------10---10-------------------10-------------10---9h10p9-------10-------
- ------10h12---------------10h12----------------10h12-----------------12-------------
- --------------------------------10h12-----------------------------------------------
- ----8-------8-8----8----8-------------8-8----8-------8-8----8-----------------------
PM    .       ...    .    .             ...    .       ...    .        ..    ..


- ---------------------------------------------------------------------------------
- -10------------10---10------------------10-------------------------------10------
- ------9h10---------------9h10----------------9h10-----10---10p9-------------9h10-
- ----0------0-0----0----0------10h12-0-0-------------------------12-10-12---------
- -------------------------------------------8------8-8----8-----------------------
- ---------------------------------------------------------------------------------
PM    .      ...    .    .            ...    .      ...    .      ........
- ---------------------------------------------------------------------------------
- -10------------10---10------------------10-------------------------------10------
- ------9h10---------------9h10----------------9h10-----10---10p9-------------9h10-
- ----0------0-0----0----0------10h12-0-0-------------------------12-10-12---------
- -------------------------------------------8------8-8----8-----------------------
- ---------------------------------------------------------------------------------
PM    .      ...    .    .            ...    .      ...    .      ........


- ------------------------------------------------------------------------------------
- ------------------------------------------------------------------------10----10h11-
- -10-------------10---10-------------------10-------------10---9h10p9-------10-------
- ------10h12---------------10h12----------------10h12-----------------12-------------
- --------------------------------10h12-----------------------------------------------
- ----8-------8-8----8----8-------------8-8----8-------8-8----8-----------------------
PM    .       ...    .    .             ...    .       ...    .        ..    ..
- ------------------------------------------------------------------------8-----8h10--
- -10-------------10---10-------------------10-------------10---8h10p8-------10-------
- ------9h10----------------9h10-----------------9h10------------------10-------------
- --------------------------------10h12-----------------------------------------------
- ------------------------------------------------------------------------------------
- ----8-------8-8----8----8-------------8-8----8-------8-8----8-----------------------
PM    .       ...    .    .             ...    .       ...    .        ..    ..

- --------------------------------------------------------------------------------------------
- -10------------10---10------------------10-----------------10h11p10-------------------------
- ------9h10---------------9h10----------------9h10-----10------------10p9h10-9h10p9----------
- ----0------0-0----0----0------10h12-0-0--------------------------------------------12p10h12-
- -------------------------------------------8------8-8----8----------------------------------
- --------------------------------------------------------------------------------------------
PM    .      ...    .    .            ...    .      ...    .
- -8-------------8----8-------------------8-------------13---8h10p8---------------------------
- ------8h10---------------8h10----------------8h10-------------------10p8h10-8h10p8----------
- ------------------------------9h10-------------------------------------------------10p9h10--
- ----0------0-0----0----0------------0-0-----------------------------------------------------
- -------------------------------------------8------8-8----8----------------------------------
- --------------------------------------------------------------------------------------------
PM    .      ...    .    .            ...    .      ...    .      

acoustic starts

- ----------------------------------------------------------------8-----8h10--
- -10~----------10--10~----------------10~----------10--8h10p8-------10-------
- -----9h10~------------9h10---------------9h10~---------------10-------------
- ----------------------------10h12~------------------------------------------
- ----------------------------------------------------------------------------
- ----------------------------------------------------------------------------
-
- ----------------------------------------------------------------------------
- ----------------------------------------------------------------10----10h11-
- -10~----------10--10~----------------10-----------10--9h10p9-------10-------
- -----10h12~-----------10h12--------------10h12~--------------12-------------
- ----------------------------10h12~------------------------------------------
- ----------------------------------------------------------------------------


- -8~-----------8---8~-----------------8~-----------8-----------------8-------
- -----8h10~------------8h10---------------8h10~--------10p8-------------8h10-
- ----------------------------9h10~--------------------------10-8--10---------
- ----------------------------------------------------------------------------
- ----------------------------------------------------------------------------
- ----------------------------------------------------------------------------
-
- ----------------------------------------------------------------------------
- -10~----------10--10~----------------10~----------10----------------10------
- -----9h10~------------9h10---------------9h10~--------10p9-------------9h10-
- ----------------------------10h12~-------------------------12-10-12---------
- ----------------------------------------------------------------------------
- ----------------------------------------------------------------------------


- ----------------------------------------------------------------8-----8h10--
- -10~----------10--10~----------------10~----------10--8h10p8-------10-------
- -----9h10~------------9h10---------------9h10~---------------10-------------
- ----------------------------10h12~------------------------------------------
- ----------------------------------------------------------------------------
- ----------------------------------------------------------------------------
-
- ----------------------------------------------------------------------------
- ----------------------------------------------------------------10----10h11-
- -10~----------10--10~----------------10-----------10--9h10p9-------10-------
- -----10h12~-----------10h12--------------10h12~--------------12-------------
- ----------------------------10h12~------------------------------------------
- ----------------------------------------------------------------------------


- -8~-----------8---8~-----------------8~-----------8---10p8-------------------
- -----8h10~------------8h10---------------8h10~-----------------8h10----------
- ----------------------------9h10~---------------------------10------9h10p9---
- -----------------------------------------------------------------------------
- -----------------------------------------------------------------------------
- -----------------------------------------------------------------------------
-
- -----------------------------------------------------------------------------
- -10~----------10--10~----------------10~----------10--11p10------------------
- -----9h10~------------9h10---------------9h10~-----------------9h10----------
- ----------------------------10h12~--------------------------10------10h12p10-
- -----------------------------------------------------------------------------
- -----------------------------------------------------------------------------


- ----------------------------------------------------------------8-----8h10--
- -10~----------10--10~----------------10~----------10--8h10p8-------10-------
- -----9h10~------------9h10---------------9h10~---------------10-------------
- ----------------------------10h12~------------------------------------------
- ----------------------------------------------------------------------------
- ----------------------------------------------------------------------------
-
- ----------------------------------------------------------------------------
- ----------------------------------------------------------------10----10h11-
- -10~----------10--10~----------------10-----------10--9h10p9-------10-------
- -----10h12~-----------10h12--------------10h12~--------------12-------------
- ----------------------------10h12~------------------------------------------
- ----------------------------------------------------------------------------


- -8~-----------8---8~-----------------8~-----------8-------------------------
- -----8h10~------------8h10---------------8h10~--------8~--------------------
- ----------------------------9h10~-------------------------------------------
- ----------------------------------------------------------------------------
- ----------------------------------------------------------------------------
- ----------------------------------------------------------------------------
-
- ----------------------------------------------------------------------------
- -10~----------10--10~----------------10~----------10------------------------
- -----9h10~------------9h10---------------9h10~--------9~--------------------
- ----------------------------10h12~------------------------------------------
- ----------------------------------------------------------------------------
- ----------------------------------------------------------------------------


- ----------------------------------------------------------------------------
- ----------------------------------------------------------------------------
- -10~------------------------------------------------------------------------
- ----------------------------------------------------------------------------
- ----------------------------------------------------------------------------
- ----------------------------------------------------------------------------
-
- ----------------------------------------------------------------------------
- ----------------------------------------------------------------------------
- ----------------------------------------------------------------------------
- -12~------------------------------------------------------------------------
- ----------------------------------------------------------------------------
- ----------------------------------------------------------------------------

[Symbols]

PM... Palm Mute notes with (...) under them
AP... Alternate Pick notes with (...) under them
h     Hammer On
p     Pull Off
[ ]   Harmonic
/     Slide Up
\     Slide Down
x     Dead Note
b     Bend
p     Pre-Bend
r     Release Bend
(x )  Play Notes x amount of times
~     Let Ring
/ 3 \ Notes are triplets (3 notes in the space of two)
w\    Whammy Bar Down
w/    Whammy Bar Up
T     Right Hand Tap

:)
Добавлено: 01.04.2016
Вам также может быть интересно:
Другие материалы по этой песне:

Страница создана 12.11.2015
http://primanota.ru/august-burns-red/twenty-one-grams-chords.htm
Привет, Гость.
Предлагаем пройти революционный курс по гитаре.
Подарок от PrimaNota.Ru, забирай!