PrimaNota.ru - самый крупный в мире бесплатный архив песенных текстов, аккордов, табулатур и нот


August Burns Red - The Wake - таба, видео

Регистрация Запомнить меня
Войти через:  Facebook Google Twitter Vk Yandex Mail.ru

August Burns Red - The Wake - таба, видео

Печатать
Просмотров: 80
[The Wake]
[Found In Far Away Places]
[August Burns Red]

Tuning: CGCFAD (Drop C)
joshuaoliveira@hotmail.com

haven't done any ABR in a while, lets do this


fade in guitar feedback

[Riff 1] - [00:00:] - [00:12]
- -------------------------------------------------------------------
- -------------------------------------------------------------------
- -------------------------------------------------------------------
- -------------------------------------------2---3---6---2-----------
- -------------------------------------6br---0---1---4---0---1-4-1-0-
- -----------------------------------------------------------1-4-1-0-
PM                                                           .......

[Riff 2, Guitar 1 & 2] - [00:12] - [00:31]
- ------------------------------------------------------------
- ------------------------------------------------------------
- ---------------------2h3p2--------------------------7-------
- --------------------------4---------------------4-5---5-4---
- -6br---0-0-6br---0-0----------6br---0-0-6---5-6-----------6-
- -------0-0-------0-0----------------0-0---------------------
PM       ...       ...                ...     ...
- ------------------------------------------------------------
- ------------------------------------------------------------
- ---------------------2h3p2--------------------------7-------
- --------------------------4---------------------4-5---5-4---
- -6br---0-0-6br---0-0----------6br---0-0-6---5-6-----------6-
- -------0-0-------0-0----------------0-0---------------------
PM       ...       ...                ...     ...


- ------------------------------------------------------------
- ------------------------------------------------------------
- ---------------------2h3p2----------------------------------
- --------------------------4---------2---3---6---2-----------
- -6br---0-0-6br---0-0----------6br---0---1---4---0---1-4-1-0-
- -------0-0-------0-0--------------------------------1-4-1-0-
PM       ...       ...                                .......
- ------------------------------------------------------------
- ------------------------------------------------------------
- ---------------------2h3p2----------------------------------
- --------------------------4---------2---3---6---2-----------
- -6br---0-0-6br---0-0----------6br---0---1---4---0---1-4-1-0-
- -------0-0-------0-0--------------------------------1-4-1-0-
PM       ...       ...                                .......


- ---------------------------------------------------------------
- ---------------------10h11p10----------------------------------
- -----------------------------11------------------------7-------
- ---------------------------------------------------4-5---5-4---
- -6br---0-0-6br---0-0-------------6br---0-0-6---5-6-----------6-
- -------0-0-------0-0-------------------0-0---------------------
PM       ...       ...                   ...     ...
- ---------------------------------------------------------------
- ---------------------13h14p13----------------------------------
- -----------------------------14-----------------------10-------
- ---------------------------------------------------7-8---8-7---
- -9br---0-0-9br---0-0-------------9br---0-0-9---8-9-----------9-
- -------0-0-------0-0-------------------0-0---------------------
PM       ...       ...                   ...     ...


- ------------------------------------------------------------------
- ---------------------10h11p10-------------------------------------
- -----------------------------[10b]\-------------------------------
- ------------------------------------------2---3---6---2-----------
- -6br---0-0-6br---0-0----------------6br---0---1---4---0---1-4-1-0-
- -------0-0-------0-0--------------------------------------1-4-1-0-
PM       ...       ...                                      .......
- ------------------------------------------------------------------
- ---------------------13h14p13-------------------------------------
- -----------------------------[15b]\-------------------------------
- ------------------------------------------2---3---6---2-----------
- -9br---0-0-9br---0-0----------------9br---0---1---4---0---1-4-1-0-
- -------0-0-------0-0--------------------------------------1-4-1-0-
PM       ...       ...                                      .......

those pinch harmonics at the end have a little bend up before you slide down


[Riff 3a] - [00:31] - [00:47]
- ---------------------------------------------
- ---------------------------------------------
- ---------------------------------------------
- ---------------------------------------------
- -000-----000-000-000-----000-000-000-000-----
- -000-----000-000-000-----000-000-000-000-----
PM ...........................................

- ---------------------------------------------
- ---------------------------------------------
- -------------------------------------[7v]----
- ---------------------------------------------
- -000-----000-000-000-----000-000-000---------
- -000-----000-000-000-----000-000-000---------
PM ..................................

- ---------------------------------------------
- ---------------------------------------------
- ---------------------------------------------
- ---------------------------------------------
- -000-----000-000-000-----000-000-000-000-----
- -000-----000-000-000-----000-000-000-000-----
PM ...........................................

- -------------------------------------------------------------
- -------------------------------------------------------------
- -------------------------------------------------------------
- -------------------------------------------------------------
- -000-----000-000-000-----000-000-000-0~----------------------
- -000-----000-000-000-----000-000-000-0~----------------------
PM .....................................

[Riff 3b, Guitar 1 & 2] - [00:38] - [00:47]
- -------------------------------------------------------------------------------------------------
- -------------------------------------------------------------------------------------------------
- ---------7---------------7---------------7---------------7---------------7---------------7-------
- -----4-5---5-4-------4-5---5-4-------4-5---5-4-------4-5---5-4-------4-5---5-4-------4-5---5-4---
- -5-6-----------6-5-6-----------6-5-6-----------6-5-6-----------6-5-6-----------6-5-6-----------6-
- -------------------------------------------------------------------------------------------------
-
- -------------------------------------------------------------------------------------------------
- -------------------------------------------------------------------------------------------------
- --------------------------------------------------------10--------------10--------------10-------
- -----------------------------------------------------7-8---8-7-------7-8---8-7-------7-8---8-7---
- -------------------------------------------------8-9-----------9-8-9-----------9-8-9-----------9-
- -------------------------------------------------------------------------------------------------


- -------------------
- -------------------
- ----------7h5-8~---
- -----4-5-----------
- -5-6---------------
- -------------------
-
- -------------------
- --------------10~--
- ---------10p8------
- -----7-8-----------
- -8-9---------------
- -------------------


[Riff 4] - [00:47] - [00:57]
- -----------------------------------------------------------------
- -----------------------------------------------------------------
- -3---------------------------2---3-------------------------------
- -5---------------------------4---5-----------------------4---0---
- -----555-555-555-555-555-555---------555-555-555-111-111-4---0---
- -----555-555-555-555-555-555---------555-555-555-111-111-4---0---
PM     .......................         ...................

- -----------------------------------------------------------------
- -----------------------------------------------------------------
- -3---------------------------2---3-------------------------------
- -5---------------------------4---5-------------------------------
- -----555-555-555-555-555-555---------555-555-555-1~------0~------
- -----555-555-555-555-555-555---------555-555-555-1~------0~------
PM     .......................         .....................

[Riff 5, Guitar 1 & 2] - [00:57] - [01:06]
- -----------------------------------------------------------------
- -----------------------------------------------------------------
- -3---------------------------2---3-------------------------------
- -5---------------------------4---5-----------------------4---0---
- ---555-5-555-5-555-5-555-555-------555-5-555-555-111-111-4---0---
- ---555-5-555-5-555-5-555-555-------555-5-555-555-111-111-4---0---
PM   .........................       .....................
- -----------------------------------------------------------------
- -----------------------------------------------------------------
- -3---------------------------2---3-------------------------------
- -5---------------------------4---5-----------------------4---0---
- ---555-5-555-5-555-5-555-555-------555-5-555-555-111-111-4---0---
- ---555-5-555-5-555-5-555-555-------555-5-555-555-111-111-4---0---
PM   .........................       .....................


- -----------------------------------------------------------------
- ---------------------------------------------------------3~------
- -3---------------------------2---3---------------3-2-3-5---------
- -5---------------------------4---5-------------------------------
- ---555-5-555-5-555-5-555-555-------555-5-555-555-----------------
- ---555-5-555-5-555-5-555-555-------555-5-555-555-----------------
PM   .........................       .............
- -----------------------------------------------------------------
- ---------------------------------------------------------7~------
- -3---------------------------2---3---------------7-5-7-8---------
- -5---------------------------4---5-------------------------------
- ---555-5-555-5-555-5-555-555-------555-5-555-555-----------------
- ---555-5-555-5-555-5-555-555-------555-5-555-555-----------------
PM   .........................       .............


[Riff 6, Guitar 1 & 2] - [01:06] - [01:27]
- ----------------------------------------------------------------------------
- ---------------------/ 3 \-----------------------8h11p8-7h11p7---------7h10-
- -7-----------7-------0h7h8-/ 3 \-----7-------------------------8p0h7h8------
- -----7h8p5-------7h8-------0h7h8-0-------7h8p5------------------------------
- ---------------------------------0------------------------------------------
- ---5-------5---5-----------------0-----5-------5----------------------------
PM   .       .   .                       .       .
- ----------------------------------------------------------------------------
- ---------------------/ 3 \-----------------------8h11p8-7h11p7---------7h10-
- -7-----------7-------0h7h8-/ 3 \-----7-------------------------8p0h7h8------
- -----7h8p5-------7h8-------0h7h8-0-------7h8p5------------------------------
- ---------------------------------0------------------------------------------
- ---5-------5---5-----------------0-----5-------5----------------------------
PM   .       .   .                       .       .


- -------------------------------------------------------------10------
- ---------------------/ 3 \-----------8---7h8---------7---10------10--
- -7-----------7-------0h7h8-/ 3 \-------------7---8-------------------
- -----7h8p5-------7h8-------0h7h8-0-----------------------------------
- ---------------------------------0-----------------------------------
- ---5-------5---5-----------------0-----0-------0---0---0---0---0---0-
PM   .       .   .                       .       .   .   .   .   .   .
- -------------------------------------------------------------10------
- ---------------------/ 3 \-----------8---7h8---------7---10------10--
- -7-----------7-------0h7h8-/ 3 \-------------7---8-------------------
- -----7h8p5-------7h8-------0h7h8-0-----------------------------------
- ---------------------------------0-----------------------------------
- ---5-------5---5-----------------0-----0-------0---0---0---0---0---0-
PM   .       .   .                       .       .   .   .   .   .   .


- ----------------------------------------------------------------------------
- ---------------------/ 3 \-----------------------8h11p8-7h11p7---------7h10-
- -7-----------7-------0h7h8-/ 3 \-----7-------------------------8p0h7h8------
- -----7h8p5-------7h8-------0h7h8-0-------7h8p5------------------------------
- ---------------------------------0------------------------------------------
- ---5-------5---5-----------------0-----5-------5----------------------------
PM   .       .   .                       .       .
- ----------------------------------------------------------------------------
- ---------------------/ 3 \-----------------------5h8p5--4h7p4----------4h7--
- ---------------------0h4h5-/ 3 \-------------------------------5p0h4h5------
- -8---4h5p0---8---4h5-------0h4h5-0---8---4h5p0------------------------------
- ---------------------------------0------------------------------------------
- ---5-------5---5-----------------0-----5-------5----------------------------
PM   .       .   .                       .       .


- -----------------------------------------------------------------10-10-10\--
- ---------------------/ 3 \-----------8---7h8---------7--7--10-10------------
- -7-----------7-------0h7h8-/ 3 \-------------7---8--------------------------
- -----7h8p5-------7h8-------0h7h8-0------------------------------------------
- ---------------------------------0------------------------------------------
- ---5-------5---5-----------------0-----0-------0---0------------------------
PM   .       .   .                       .       .   .
- -----------------------------------------------------------------------14\--
- ---------------------/ 3 \---------------------------------------11-11------
- ---------------------0h4h5-/ 3 \-----8---7h8---------------11-11------------
- -8---4h5p0---8---4h5-------0h4h5-0-----------9---10--12-12------------------
- ---------------------------------0------------------------------------------
- ---5-------5---5-----------------0-----0-------0---0------------------------
PM   .       .   .                       .       .   .


[Riff 7a] - [01:27] - [01:45] - [x2]
- ---------------------------------------------------------
- ---------------------------------------------------------
- ---------------------------------------------------------
- -----------------------------------------------------1---
- -555---5-----55555-----555---5---555---5-----5---11111---
- -555---5-----55555-----555---5---555---5-----5---11111---
PM ....................................................

- ---------------------------------------------------------
- ---------------------------------------------------------
- ---------------------------------------------------------
- -----------------------------------------------------1---
- -555---5-----55555-----555---555-555---5-----5---11111---
- -555---5-----55555-----555---555-555---5-----5---11111---
PM ....................................................

[Riff 7b] - [01:27] - [01:45]
- --------------------------------
- --------------------------------
- -7p0-5h8-7p0------0h10-12p0-8p0-
- -------------8/12---------------
- --------------------------------
- --------------------------------

- -------------------------------
- -------------------------------
- -7p0-5h8-7p0------0h5-8p0-10p0-
- -------------8/12--------------
- -------------------------------
- -------------------------------

- --------------------------------
- --------------------------------
- -7p0-5h8-7p0------0h10-12p0-8p0-
- -------------8/12---------------
- --------------------------------
- --------------------------------

- ---------------------------------
- ---------------------------------
- -7p0-5h8-7p0------0h10-12p0-12p0-
- -------------8/12----------------
- ---------------------------------
- ---------------------------------

- --------------------------------
- --------------------------------
- -7p0-5h8-7p0------0h10-12p0-8p0-
- -------------8/12---------------
- --------------------------------
- --------------------------------

- -------------------------------
- -------------------------------
- -7p0-5h8-7p0------0h5-8p0-10p0-
- -------------8/12--------------
- -------------------------------
- -------------------------------

- --------------------------------
- --------------------------------
- -7p0-5h8-7p0------0h10-12p0-8p0-
- -------------8/12---------------
- --------------------------------
- --------------------------------

- ---------------------------------
- ----------------------------11---
- -7p0-5h8-7p0------0h10-12p0------
- -------------8/12--------------8-
- ---------------------------------
- ---------------------------------

[Riff 8, Guitar 1 & 2] - [01:45] - [01:55] - [x2]
- -----------------------------------------------------------------
- -----------------------------------------------------------------
- -----------------------------------------------------------------
- -5~--------------------------------------------------------------
- -5~------------------------------------------------------1---1---
- -5~------------------------------------------------------1---1---
PM                                                         .....
- -----------------------------------------------------------------
- -----------------------------------------------------------------
- -12--12--12--12--12--12--12--12--12--12--12--12--12--12--10b-----
- -----------------------------------------------------------------
- -----------------------------------------------------------------
- -----------------------------------------------------------------

[Riff 9, Guitar 1+2+3] - [01:55] - [02:09]
- -------------------------------------------------
- -------------------------------------------------
- -------------------------------------------------
- -5~----------------------------------------------
- -5~--------------------------------------1---1---
- -5~--------------------------------------1---1---
PM                                         .....
- -------------------------------------------------
- -------------------------------------------------
- -12--12--12--12--12--12--12--12--12--12--10b-----
- -------------------------------------------------
- -------------------------------------------------
- -------------------------------------------------
-
- -------------------------------------------------
- -15--15--15--15--15--15--15~---------------------
- -------------------------------------------------
- -------------------------------------------------
- -------------------------------------------------
- -------------------------------------------------



- -------------------------------------------------
- -------------------------------------------------
- -------------------------------------------------
- -5~----------------------------------------------
- -5~--------------------------------------1---1---
- -5~--------------------------------------1---1---
PM                                         .....
- -------------------------------------------------
- -------------------------------------------------
- -12--12--12--12--12--12--12--12--12--12--10b-----
- -------------------------------------------------
- -------------------------------------------------
- -------------------------------------------------
-
- -------------------------------------------------
- -15--15--15--15--16--16--15~---------------------
- -------------------------------------------------
- -------------------------------------------------
- -------------------------------------------------
- -------------------------------------------------



- -------------------------------------------------
- -------------------------------------------------
- -------------------------------------------------
- -5~----------------------------------------------
- -5~--------------------------------------1---1---
- -5~--------------------------------------1---1---
PM                                         .....
- -------------------------------------------------
- -------------------------------------------------
- -12--12--12--12--12--12--12--12--12--12--10b-----
- -------------------------------------------------
- -------------------------------------------------
- -------------------------------------------------
-
- -------------------------------------------------
- -15--15--15--15--15--15--15~---------------------
- -------------------------------------------------
- -------------------------------------------------
- -------------------------------------------------
- -------------------------------------------------



- -------------------------------------------------
- -------------------------------------------------
- -------------------------------------------------
- -5~----------------------------------------------
- -5~--------------------------------------1---1---
- -5~--------------------------------------1---1---
PM                                         .....
- -------------------------------------------------
- -------------------------------------------------
- -12--12--12--12--12--12--12--12--12--12--10b-----
- -------------------------------------------------
- -------------------------------------------------
- -------------------------------------------------
-
- -------------------------------------------------
- -15--15--15--15--16--16--15~-------------13b-----
- -------------------------------------------------
- -------------------------------------------------
- -------------------------------------------------
- -------------------------------------------------



[Riff 10, Guitar 1+2+3] - [02:09] - [02:24]
- -------------------------------------------------
- -------------------------------------------------
- -------------------------------------------------
- -5~----------------------------------------------
- -5~--------------------------------------1---1---
- -5~--------------------------------------1---1---
PM                                         .....
- -------------------------------------------------
- -------------------------------------------------
- -12--12--12--12--12--12--12--12--12--12--10b-----
- -------------------------------------------------
- -------------------------------------------------
- -------------------------------------------------
-
- -------------------------------------------------
- -15--15--15--15--15--15--15~-------------13b-----
- -------------------------------------------------
- -------------------------------------------------
- -------------------------------------------------
- -------------------------------------------------



- -------------------------------------------------
- -------------------------------------------------
- -------------------------------------------------
- -5~----------------------------------------------
- -5~--------------------------------------1---1---
- -5~--------------------------------------1---1---
PM                                         .....
- -------------------------------------------------
- -------------------------------------------------
- -12--12--12--12--12--12--12--12--12--12--10b-----
- -------------------------------------------------
- -------------------------------------------------
- -------------------------------------------------
-
- -------------------------------------------------
- -15--15--15--15--16--16--15~-------------13b-----
- -------------------------------------------------
- -------------------------------------------------
- -------------------------------------------------
- -------------------------------------------------



- -------------------------------------------------
- -------------------------------------------------
- -------------------------------------------------
- -------------------------------------------------
- -5-5-5-5-5-5-5-5-8-8-8-8-5-5-5-5-5-5-5-5-1-1-1-1-
- -5-5-5-5-5-5-5-5-8-8-8-8-5-5-5-5-5-5-5-5-1-1-1-1-
PM ...............................................
- -------------------------------------------------
- -------------------------------------------------
- -12--12--12--12--12--12--12--12--12--12--10b-----
- -------------------------------------------------
- -------------------------------------------------
- -------------------------------------------------
-
- -------------------------------------------------
- -15--15--15--15--15--15--15~-------------13b-----
- -------------------------------------------------
- -------------------------------------------------
- -------------------------------------------------
- -------------------------------------------------



- -------------------------------------------------
- -------------------------------------------------
- -------------------------------------------------
- -5-5-5-5-5-5-5-5-8-8-8-8-5-5-5-5-5-5-5-5-10------
- -5-5-5-5-5-5-5-5-8-8-8-8-5-5-5-5-5-5-5-5-10------
- -5-5-5-5-5-5-5-5-8-8-8-8-5-5-5-5-5-5-5-5-10------
-
- -------------------------------------------------
- -------------------------------------------------
- -12--12--12--12--12--12--12--12--12--12--10b-----
- -------------------------------------------------
- -------------------------------------------------
- -------------------------------------------------
-
- -------------------------------------------------
- -15--15--15--15--16--16--15~-------------13b-----
- -------------------------------------------------
- -------------------------------------------------
- -------------------------------------------------
- -------------------------------------------------



[Riff 6, Guitar 1 & 2] - [02:24] - [02:44]

[Riff 11a] - [02:24] - [03:04] - [x2]
- -----------------------------------------------------------------
- -----------------------------------------------------------------
- -3---------------------------2---3-------------------------------
- -5---------------------------4---5-----------------------4---0---
- -----555-555-555-555-555-555---------555-555-555-111-111-4---0---
- -----555-555-555-555-555-555---------555-555-555-111-111-4---0---
PM     .......................         ...................

- -----------------------------------------------------------------
- -----------------------------------------------------------------
- -3---------------------------2---3-------------------------------
- -5---------------------------4---5---------------1~------0~------
- -----555-555-555-555-555-555---------555-555-555-1~------0~------
- -----555-555-555-555-555-555---------555-555-555-1~------0~------
PM     .......................         ...........

[Riff 11b, Guitar 1 & 2] - [02:24] - [03:04]
- -------------------15p14-------------------------------------------------
- -13b---------------------16-15h16-14h16-15~------------------------------
- ---------------------------------------------------------15~-------------
- -----------------------------------------------------------------16~-----
- -------------------------------------------------------------------------
- -------------------------------------------------------------------------
-
- -------------------------------------------------------------------------
- -------------------------------------------------------------------------
- -------------------------------------------------------------------------
- -------------------------------------------------------------------------
- -------------------------------------------------------------------------
- -------------------------------------------------------------------------


- ---------------------------------17br---15---14-15-14------14-----------
- -------15~-------------16~----------------------------16------16---15---
- ------------------------------------------------------------------------
- -17~-------------17~----------------------------------------------------
- ------------------------------------------------------------------------
- ------------------------------------------------------------------------
-
- ---------------------------------14br-----------------------------------
- ----------------------------------------16---15-16-15------15-----------
- ------------------------------------------------------15------15---14---
- ------------------------------------------------------------------------
- ------------------------------------------------------------------------
- ------------------------------------------------------------------------


- ----------------------------------------------------------10-11/15-------17----18----------14----
- -------------------------------------------------11p10-------------16p15----15----15\13-------16-
- -------------------------------------------------------12-------------------------------15-------
- -12-13-12----------------------------------------------------------------------------------------
- ----------15-13-12-13-12-10-13-12-10-9h10p9------------------------------------------------------
- --------------------------------------------12---------------------------------------------------
-
- -------------------------------------------------------------------------14----15----------11----
- ----------------------------------------------------------------------------11----11\10-------13-
- ----------------------------------------------------------------------------------------12-------
- -------------------------------------------------------------------------------------------------
- -------------------------------------------------------------------------------------------------
- -------------------------------------------------------------------------------------------------


- -------------------15p14-------------------------------------------------14b---------------------
- -15v---------------------16-15h16-14h16\-8h11p8-----------------7h8/15---------------------------
- ------------------------------------------------11-8-11-8-7-7h8----------------------------------
- -------------------------------------------------------------------------------------------------
- -------------------------------------------------------------------------------------------------
- -------------------------------------------------------------------------------------------------
PM                                                   ........
- -------------------------------------------------------------------------------------------------
- -11v---------------------------------------------------------------------------------------------
- -------------------------------------------------------------------------------------------------
- -------------------------------------------------------------------------------------------------
- -------------------------------------------------------------------------------------------------
- -------------------------------------------------------------------------------------------------


[Riff 12, Guitar 1 & 2] - [03:04] - [03:27]
- -----------------------------------------------------------------
- -----------------------------------------------------------------
- -3---------------------------2---3-------------------------------
- -5---------------------------4---5-------------------------------
- ---555-5-55555---------------------555-5-55555-------------------
- ---555-5-55555---------------------555-5-55555-------------------
PM   ...........                     ...........
- -----------------------------------------------------------------
- -----------------------------------------------------------------
- -3---------------------------2---3-------------------------------
- -5---------------------------4---5-------------------------------
- ---555-5-55555-5-5-5-5-5-5-5-------555-5-55555-5-5-5-5-5-5-5-5-5-
- ---555-5-55555-5-5-5-5-5-5-5-------555-5-55555-5-5-5-5-5-5-5-5-5-
PM   .........................       .............................


- -----------------------------------------------------------------
- -----------------------------------------------------------------
- -3---------------------------2---3--------------2h3p2------------
- -5---------------------------4---5-------------------4p0-1/4-4h7-
- ---555-5-55555---------------------555-5-55555-------------------
- ---555-5-55555---------------------555-5-55555-------------------
PM   ...........                     ...........
- -----------------------------------------------------------------
- -----------------------------------------------------------------
- -3---------------------------2---3-------------------------------
- -5---------------------------4---5---------------------------0---
- ---555-5-55555-5-5-5-5-5-5-5-------555-5-55555-5~--111-1-444-0---
- ---555-5-55555-5-5-5-5-5-5-5-------555-5-55555-5~--111-1-444-0---
PM   .........................       .........................


- -----------------------------------------------------------------
- -----------------------------------------------------------------
- -3---------------------------2---3-------------------------------
- -5---------------------------4---5---------------------------0---
- ---555-5-55555---------------------555-5-55555-----111-1-444-0---
- ---555-5-55555---------------------555-5-55555-----111-1-444-0---
PM   ...........                     .........................
- -----------------------------------------------------------------
- -----------------------------------------------------------------
- -3---------------------------2---3--------------2h3p2------------
- -5---------------------------4---5-------------------4p0-1/4-4h7-
- ---555-5-55555---------------------555-5-55555-------------------
- ---555-5-55555---------------------555-5-55555-------------------
PM   ...........                     ...........


- -------------------------------------------------------5-3-6-5-3-5-----------------
- -------------------------------------------------3h4p3-----------------------------
- -3---------------------------2---2h3p2---------------------------------------------
- -5---------------------------4--------4p0-1/4-4h7------------------5---------------
- ---555-5-55555-----------------------------------------------------5---------------
- ---555-5-55555-----------------------------------------------------5---------------
PM   ...........
- -----------------------------------------------------------------------------------
- -----------------------------------------------------------------------------------
- -3---------------------------2---3---------------------7-5-8-7-5-7-----------------
- -5---------------------------4---5---------------5h6p5-------------5---------------
- ---555-5-55555-5-5-5-5-5-5-5-------555-5-55555-5-------------------5---------------
- ---555-5-55555-5-5-5-5-5-5-5-------555-5-55555-5-------------------5---------------
PM   .........................       .............

[Symbols]

PM... Palm Mute notes with (...) under them
AP... Alternate Pick notes with (...) under them
h     Hammer On
p     Pull Off
[ ]   Harmonic
/     Slide Up
\     Slide Down
x     Dead Note
b     Bend
p     Pre-Bend
r     Release Bend
(x )  Play Notes x amount of times
~     Let Ring
/ 3 \ Notes are triplets (3 notes in the space of two)
w\    Whammy bar down

:)
Добавлено: 25.10.2015
Другие материалы по этой песне:

Страница создана 25.10.2015
http://primanota.ru/august-burns-red/wake-chords.htm
Привет, Гость.
Предлагаем пройти революционный курс по гитаре.
Подарок от PrimaNota.Ru, забирай!