PrimaNota.ru - самый крупный в мире бесплатный архив песенных текстов, аккордов, табулатур и нот


August Burns Red - Ghosts - таба, видео

Регистрация Запомнить меня
Войти через:  Facebook Google Twitter Vk Yandex Mail.ru

August Burns Red - Ghosts - таба, видео

Печатать
Просмотров: 334
[Ghosts]
[August Burns Red]
[Found In Far Away Places]

Tuning: Bb F Bb Eb G C (2 Steps Down From Drop D)
joshuaoliveira@hotmail.com

[Riff 1] - [00:00] - [01:21] - [x4]
- ------------------------------------------------------------------
- ---------8-6-----------------------------8-6-------------6--------
- -------------7-------------------------------7-------------9-7----
- ---------------------------------------------------------------7--
- -0~------------------------------0~-------------------------------
- -0~------------------------------0~-------------------------------

- ------------------------------------------------------------------
- -------------------------------------------------6----------------
- -------------------------------------------------------9-----6----
- -------7br---0-------------------------7br---0--------------------
- -8~--------------8~--------------8~-------------------------------
- -8~------------------------------8~-------------------------------

[Riff 2] - [00:44] - [01:40]
- ---17~-------------17~-------------17~-------------17~------------
- ------18~-------------18~-------------18~-------------18~---------
- ---------14~-------------14~-------------14~-------------14~------
- ------------------------------------------------------------------
- ------------------------------------------------------------------
- ------------------------------------------------------------------

- ---17~-------------17~-------------17~-------------17~------------
- ------18~-------------18~-------------18~-------------18~---------
- ---------15~-------------15~-------------15~-------------15~------
- ------------------------------------------------------------------
- ------------------------------------------------------------------
- ------------------------------------------------------------------

- ---17~-------------17~-------------17~-------------17~------------
- ------18~-------------18~-------------18~-------------18~---------
- ---------14~-------------14~-------------14~-------------14~------
- ------------------------------------------------------------------
- ------------------------------------------------------------------
- ------------------------------------------------------------------

- ---17~-------------17~-------------17~-------------17br----------- pick eighth notes in bend and release
- ------18~-------------18~-------------18~---------------~---------
- ---------15~-------------15~-------------15~---------------~------
- ------------------------------------------------------------------
- ------------------------------------------------------------------
- ------------------------------------------------------------------


[Riff 3, Guitar 1 & 2] - [01:21] - [01:40]
- ------------------------------------------------------------------
- ------------------------------------------------------------------
- ------------------------------------------------------------------
- -0~--------------0~--------------8~--------------0~---------------
- -0~--------------0~--------------8~--------------0~---------------
- -0~--------------0~--------------8~--------------0~---------------
-
- -13--------------13--------------13--------------13---------------
- -15(x32)---------15(x32)---------15(x32)---------15(x32)----------
- -14--------------14--------------14--------------14---------------
- ------------------------------------------------------------------
- ------------------------------------------------------------------
- ------------------------------------------------------------------

[Riff 4a] - [01:40] - [02:00]
- ------------------------------------------
- ------------------------------------------
- ------------------------------------------
- ------------------------------------------
- -0-00-0-0-0-00-00-0-0-0000-00-0000-00-0-0-
- -0-00-0-0-0-00-00-0-0-0000-00-0000-00-0-0-
PM ........................................

- ----------------------------------
- ----------------------------------
- ----------------------------------
- ----------------------------------
- -0-00-0-0-0-00-00-0-0-0000-00-000-
- -0-00-0-0-0-00-00-0-0-0000-00-000-
PM ................................

- ------------------------------------------
- ------------------------------------------
- ------------------------------------------
- ------------------------------------------
- -8-88-8-8-8-88-88-8-8-8888-88-8880-00-0-0-
- -8-88-8-8-8-88-88-8-8-8888-88-8880-00-0-0-
PM ........................................

- ----------------------------------
- ----------------------------------
- ----------------------------------
- ----------------------------------
- -0-00-0-0-0-00-00-0-0-0000-00-000-
- -0-00-0-0-0-00-00-0-0-0000-00-000- let notes ring out
PM ................................

there is a pattern here, its 1 2 1 1 1 2 2 1 1 4 2 3 (the 2nd and 4th parts)

when repeating the pattern there is no space between the last note and the first note of the second time

this makes the chug at the beginning and the end combine to sound out of the pattern

on the first and third time played the pattern repeats but is cut off after a 1/2 bar and starts over

[Riff 4b] - [01:40] - [02:00]
- -13----------------------------------------------
- ----15-------------------------------------17\15-
- -------15-14br-----14----------------14/15-------
- ----------------15----15-14----14-15-------------
- ----------------------------17-------------------
- -------------------------------------------------
PM                ....................

- -13-------------17-13-------------13-17-13-------13-------------17-13----
- ----15----------------15-14-15-17----------17-14----15----------------15-
- -------15-14br-----------------------------------------15-14br-----------
- -------------------------------------------------------------------------
- -------------------------------------------------------------------------
- -------------------------------------------------------------------------

- -13----------------------------------------------13-------------17-13----
- ----15-------------------------------------17\15----15----------------15-
- -------15-14br-----14----------------14/15-------------15-14br-----------
- ----------------15----15-14----14-15-------------------------------------
- ----------------------------17-------------------------------------------
- -------------------------------------------------------------------------
PM                ....................

- -13----------------------------------------------
- ----15-------------------------------------17\15-
- -------15-14br-----14----------------14/15-------
- ----------------15----15-14----14-15-------------
- ----------------------------17-------------------
- -------------------------------------------------
PM                ....................

- -13-------------17\18/17----------17-20-18-17----13-------------17-13----
- ----15-------------------15-17-18-------------17----15----------------15-
- -------15-14br-----------------------------------------15-14br-----------
- -------------------------------------------------------------------------
- -------------------------------------------------------------------------
- -------------------------------------------------------------------------

- -13----------------------------------------------
- ----15-------------------------------------17\15-
- -------15-14br-----14----------------14/15-------
- ----------------15----15-14----14-15-------------
- ----------------------------17-------------------
- -------------------------------------------------
PM                ....................

- -13-------------17-13----------------------------
- ----15----------------15-17-14-------------------
- -------15-14br-----------------15-14-15-14-------
- -------------------------------------------15-14-
- -------------------------------------------------
- -------------------------------------------------

[Riff 5, Guitar 1 & 2] - [02:00] - [02:23]
- -----------------------------------------------------------------------------------
- -----------------------------------------------------------------------------------
- -----------------------------------------------------------------------------7-----
- ------------------------------------------12\8-0---------5h7---7p0-------------8p7-
- -8p7p0-0------------------0---7/8-000-000--------0---0-------------8p7p0-0---------
- -------0---8p0-8p0-7h8hp0-0-------000-000--------0---0-------0-----------0---------
PM       .                  .       .......        .....       .           .
- -----------------------------------------------------------------------------------
- -----------------------------------------------------------------------------------
- -----------------------------------------------------------------------------7-----
- ------------------------------------------12\8-0---------5h7---7p0-------------8p7-
- -8p7p0-0------------------0---7/8-000-000--------0---0-------------8p7p0-0---------
- -------0---8p0-8p0-7h8hp0-0-------000-000--------0---0-------0-----------0---------
PM       .                  .       .......        .....       .           .


- -------------------------------------------------------------------9-----
- ----------------------------------------------------------------------10-
- -------------------------------------------------------------9/10--------
- ------------------------------------------12\8-0----------7--------------
- -8p7p0-0------------------0---7/8-0-0-0----------0---0-0-----------------
- -------0---8p0-8p0-7h8hp0-0-------0-0-0----------0---0-0-----------------
PM       .                  .       .....          .......
- -------------------------------------------------------------------13----
- ----------------------------------------------------------------------14-
- -------------------------------------------------------------12/14-------
- ------------------------------------------12\8-0----------11-------------
- -8p7p0-0------------------0---7/8-0-0-0----------0---0-0-----------------
- -------0---8p0-8p0-7h8hp0-0-------0-0-0----------0---0-0-----------------
PM       .                  .       .....          .......


- ------------------------------------------------------------------------------------
- ------------------------------------------------------------------------------------
- -----------------------------------------------------------------------------7------
- ------------------------------------------12\8-0---------5h7---7p0-------------8p7--
- -8p7p0-0------------------0---7/8-000-000--------0---0-------------8p7p0-0----------
- -------0---8p0-8p0-7h8hp0-0-------000-000--------0---0-------0-----------0----------
PM       .                  .       .......        .....       .           .
- ------------------------------------------------------------------------------------
- ------------------------------------------------------------------------------------
- ------------------------------------------------------------------------------------
- ------------------------------------------12\8-0---------5h7---7p0-----------8------
- -8p7p0-0------------------0---7/8-000-000--------0---0-------------8p7p0-0-----10p8-
- -------0---8p0-8p0-7h8hp0-0-------000-000--------0---0-------0-----------0----------
PM       .                  .       .......        .....       .           .


- -----------------------------------------------------------------------9-----
- --------------------------------------------------------------------------10-
- -----------------------------------------------------------------9/10--------
- ----------------------------------------------12\8-0----------7--------------
- -8p7p0---0------------------0---7/8---0-0-0----------0---0-0-----------------
- ---------0---8p0-8p0-7h8hp0-0---------0-0-0----------0---0-0-----------------
PM         .                  .         .....          .......
- -----------------------------------------------------------------------13----
- --------------------------------------------------------------------------14-
- -----------------------------------------------------------------12/14-------
- ----------------------------------------------8\5--0----------11-------------
- -12p10p0-0------------------0---10/12-0-0-0----------0---0-0-----------------
- ---------0---8p0-8p0-7h8hp0-0---------0-0-0----------0---0-0-----------------
PM         .                  .         .....          .......


- --------------------------
- --------------------------
- -12p10h12-------------9---
- ----------12-11----11-----
- ----------------12--------
- --------------------------
-
- --------------------------
- --------------------------
- -15p14h15-------------14--
- ----------15-14----14-----
- ----------------15--------
- --------------------------


[Riff 6a] - [02:23] - [02:45]
- ------------------------------------------------------------------
- ------------------------------------------------------------------
- ------------------------------------------------------------------
- ------------------------------------------------------------------
- -00000-------00000-----------------000-0-00000---00000---00000----
- -00000-------00000-----------------000-0-00000---00000---00000----
PM .............................................................

- ------------------------------------------------------------------
- ------------------------------------------------------------------
- ------------------------------------------------------------------
- ------------------------------------------------------------------
- -000---0---000-0-00000-------------000-0-00000---00000---00000----
- -000---0---000-0-00000-------------000-0-00000---00000---00000----
PM .............................................................

- ------------------------------------------------------------------
- ------------------------------------------------------------------
- ------------------------------------------------------------------
- ------------------------------------------------------------------
- -00000-------00000-----------------777-7-77777---77777---77777----
- -00000-------00000-----------------777-7-77777---77777---77777----
PM .............................................................

- ------------------------------------------------------------------
- ------------------------------------------------------------------
- ------------------------------------------------------------------
- ---------------------------------------------------------11111111-
- -000---0---000-0-00000-------------777-7-77777---7-7-7-7-7-7-7-7--
- -000---0---000-0-00000-------------777-7-77777---7-7-7-7-7-7-7-7--
PM .......................................................

[Riff 6b] - [02:34] - [02:45]
- -10h13p10----------------------------------------------------------------
- ----------11--10---------------------14br--------------------------------
- --------------------10/14--14--------------14----------------------------
- -------------------------------15-------------14h15p14-14br--12--14--11--
- -------------------------------------------------------------------------
- -------------------------------------------------------------------------

- -10h13p10----------------------------------------------------------------
- ----------11--10---------------------15br--14--------22-22-22-22-22\-----
- --------------------10/14--14------------------14/-----------------------
- -------------------------------15----------------------------------------
- -------------------------------------------------------------------------
- -------------------------------------------------------------------------

[Riff 7, Guitar 1 & 2] - [02:45] - [03:05]
- ---------------------------------------------------------------------------
- ---------------------------------------------------10----------------------
- -7h10p7-------------------------------7h10p7------------10---7---6h7-------
- ----------8---7--------------------------------8-----------------------7---
- --------------------8/12---12---8------------------------------------------
- --------0---0---0-0------0----0---0-0--------0---0----0----0---0-----0---0-
PM        .   .   ...      .    .   ...        .   .    .    .   .     .   .
- ---------------------------------------------------------------------------
- ---------------------------------------------------10----------------------
- -7h10p7-------------------------------7h10p7------------10---7---6h7-------
- ----------8---7--------------------------------8-----------------------7---
- --------------------8/12---12---8------------------------------------------
- --------0---0---0-0------0----0---0-0--------0---0----0----0---0-----0---0-
PM        .   .   ...      .    .   ...        .   .    .    .   .     .   .


- -------------------------------------------------------------------------
- -------------------------------------------------------------------------
- -7h10p7-------------------------------7h10p7-----------------------------
- ----------8---7--------------------------------8---7h8p0-3/7-7p0-------8-
- --------------------8/12---12---8--------------------------------8-0h7---
- --------0---0---0-0------0----0---0-0--------0---0-----------------------
PM        .   .   ...      .    .   ...        .   . 
- -------------------------------------------------------------------------
- -------------------------------------------------------------------------
- -7h10p7-------------------------------7h10p7-----------------------------
- ----------8---7--------------------------------8---7h8p0-3/7-7p0-------8-
- --------------------8/12---12---8--------------------------------8-0h7---
- --------0---0---0-0------0----0---0-0--------0---0-----------------------
PM        .   .   ...      .    .   ...        .   . 


- -------------------------------------------------------------------------------
- -6h10p6-------------------------------6h10p6---------------------8/10----------
- ----------7---5-----7h10---10---6--------------7---7----9---10-----------9-----
- -------------------------------------------------------------------------------
- ----------------------------------------------------------8----8------10----10-
- --------0---0---0-0------8----8---7-7--------0---0----0------------------------
PM        .   .   ...      .    .   ...        .   .    .   .    .      ..    ..
- -------------------------------------------------------------------------------
- ---------------------------------------------------10------------9/10----------
- -7h10p7-------------------------------7h10p7------------7---7------------------
- ----------8---7-----8h10---10---8--------------8-------------------------11----
- ----------------------------------------------------------8----8------10----10-
- --------0---0---0-0------8----8---7-7--------0---0----0------------------------
PM        .   .   ...      .    .   ...        .   .    .   .    .      ..    ..


- -------------------------------------------------------------------------------
- -6h10p6-------------------------------6h10p6-----------------------------------
- ----------7---5-----7h10---10---6--------------7---5h7------------------10~----
- -------------------------------------------------------0h7/10-10-0h8h10--------
- -------------------------------------------------------------------------------
- --------0---0---0-0------8----8---7-7--------0---0-----------------------------
PM        .   .   ...      .    .   ...        .   .
- -------------------------------------------------------------------------------
- -------------------------------------------------------------------------------
- -7h10p7-------------------------------7h10p7-----------------------------------
- ----------8---7-----8h10---10---8--------------8---7h8p0-3/7---7p0------10~----
- -------------------------------------------------------------------8p0---------
- --------0---0---0-0------8----8---7-7--------0---0-----------------------------
PM        .   .   ...      .    .   ...        .   .


[Riff 8a] - [03:05] - [03:37]
- ---------------------------------5-------------------------------
- -1---------------3---------------6-------------------------------
- -2---------------5---------------7-------------------------------
- -3---------------5---------------7-------------------------------
- -1(x16)----------3(x16)----------5(x16)--------------------------
- -----------------------------------------------------------------

- ---------------------------------5-------------------------------
- -1---------------3---------------6-------------------------------
- -2---------------5---------------7-------------------------------
- -3---------------5---------------7-------------------------------
- -1(x16)----------3(x16)----------5(x16)--------------------------
- -----------------------------------------------------------------

- ---------------------------------5-------------------------------
- -1---------------3---------------6-------------------------------
- -2---------------5---------------7-------------------------------
- -3---------------5---------------7-------------------------------
- -1(x16)----------3(x16)----------5(x16)--------------------------
- -----------------------------------------------------------------

- -----------------------------------------------------------------
- -1---------------3-----------------------------------------------
- -2---------------5-----------------------------------------------
- -3---------------5---------------0~----------------------3---2/7-
- -1(x16)----------3(x16)----------0~--------------------0-3-0-2/7-
- ---------------------------------0~--------------------0-3-0-2/7-
PM                                                       .   .

[Riff 8b] - [03:05] - [03:07]
- ----------------------------------------------------------------------------------------------
- ----------------------------------------------------------------11-11-11-10-10-10-10-10-10-10-
- ----------10-10-10-12-12-12-10-10-10-10-10-10----------10-10-10-------------------------------
- ----------------------------------------------10-10-10----------------------------------------
- -12-12-12-------------------------------------------------------------------------------------
- ----------------------------------------------------------------------------------------------
PM ........                                     ........

- -------------------------------------------------------------------------------------
- ----------------------------------------11-10br-------------10br---------------------
- -10br-------------10br------------10-12----------------------------------------------
- -------12\10--12--------12--10-12----------------12\10--12--------12--10-12-10----10-
- -------------------------------------------------------------------------------12----
- -------------------------------------------------------------------------------------

- ----------------------------------------------------------------------------------------------
- ----------------------------------------------------------------11-11-11-10-10-10-10-10-10-10-
- ----------10-10-10-12-12-12-10-10-10-10-10-10----------10-10-10-------------------------------
- ----------------------------------------------10-10-10----------------------------------------
- -12-12-12-------------------------------------------------------------------------------------
- ----------------------------------------------------------------------------------------------
PM ........                                     ........

- -10--------------12--------------13----------15----------17------------17\15-
- -14b-------------16b-------------17b---------19b---------21b-----------------
- -----------------------------------------------------------------------------
- -----------------------------------------------------------------------------
- -----------------------------------------------------------------------------
- -----------------------------------------------------------------------------

- -13----------13----------13----------13----17p13-12----------12----------12----------12----12/13-
- ----15----15----15----15----15----15----15----------13----13----13----13----13----13----13-------
- -------14----------14----------14----------------------12----------12----------12---------------- let
- ------------------------------------------------------------------------------------------------- ring
- -------------------------------------------------------------------------------------------------
- -------------------------------------------------------------------------------------------------

- -13-13-13-13-13-13-13-13-13-13-13-13-13-13-13-13-13-13-13-13-13-13-13-13-13-13-13-13-13-13-13-13-
- -15-15-15-15-15-15-15-15-15-15-15-15-15-15-15-15-15-15-15-15-15-15-15-15-15-15-15-15-15-15-15-15-
- -14-14-14-14-14-14-14-14-14-14-14-14-14-14-14-14-14-14-14-14-14-14-14-14-14-14-14-14-14-14-14-14-
- -------------------------------------------------------------------------------------------------
- -------------------------------------------------------------------------------------------------
- -------------------------------------------------------------------------------------------------

[Riff 9] - [03:07] - [04:00]
- -----------------------------------------------------------------
- -----------------------------------------------------------------
- -----------------------------------------------------------------
- ---------------------------------------------------------3---2/7-
- -0-----00000---0---0---0000000-----00-00-0--0--0000000-0-3-0-2/7-
- -0-----00000---0---0---0000000-----00-00-0--0--0000000-0-3-0-2/7-
PM .......................................................   .

- -----------------------------------------------------------------
- -----------------------------------------------------------------
- -----------------------------------------------------------------
- ---------------------------------------------------------3---2/7-
- -0-----00000---0---0---0000000-----00-00-0--0--0000000-0-3-0-2/7-
- -0-----00000---0---0---0000000-----00-00-0--0--0000000-0-3-0-2/7-
PM .......................................................   .

- -----------------------------------------------------------------
- -----------------------------------------------------------------
- -----------------------------------------------------------------
- ---------------------------------------------------------3---2/7-
- -0-----00000---0---0---0000000-----00-00-0--0--0000000-0-3-0-2/7-
- -0-----00000---0---0---0000000-----00-00-0--0--0000000-0-3-0-2/7- let notes ring out
PM .......................................................   .

- -----------------------------------------------------------------
- -----------------------------------------------------------------
- -----------------------------------------------------------------
- ---------------------------------------------------------3-----5-
- -0-----00000---0---0---0000000-----00-00-0--0--0000000-0-3-0-0-3-
- -0-----00000---0---0---0000000-----00-00-0--0--0000000-0-3-0-0---
PM .......................................................   ...

[Riff 10] - [03:49] - [04:46] - [x5]
- -------------------------------------------------
- -15-15-15-15-15-15-15-15-15-15-15-15-15-15-15-15-
- -14-14-14-14-14-14-14-14-14-14-14-14-14-14-14-14-
- -12-12-12-12-12-12-12-12-12-12-12-12-12-12-12-12-
- -------------------------------------------------
- -------------------------------------------------

[Riff 11a] - [04:00] - [04:46]
- -1-1-1-1-1-1-1-1-1-1-1-1-1-1-1-1---------------------------------
- -3-3-3-3-3-3-3-3-3-3-3-3-3-3-3-3-5-5-5-5-5-5-5-5-5-5-5-----------
- -2-2-2-2-2-2-2-2-2-2-2-2-2-2-2-2-5-5-5-5-5-5-5-5-5-5-5-----3-2---
- -3-3-3-3-3-3-3-3-3-3-3-3-3-3-3-3-5-5-5-5-5-5-5-5-5-5-5-2-3-----3-
- -1-1-1-1-1-1-1-1-1-1-1-1-1-1-1-1-3-3-3-3-3-3-3-3-3-3-3-----------
- -----------------------------------------------------------------

- -----------------------------------------------------------------
- -----------------------------------------------------------------
- -----------------------------------------------------------------
- ---------------------------------------------------------7---7\5-
- -0-----00000---0---0---0000000-----00-00-0--0--0000000-0-5---5\3-
- -0-----00000---0---0---0000000-----00-00-0--0--0000000-0---------
PM .......................................................

- -1-1-1-1-1-1-1-1-1-1-1-1-1-1-1-1---------------------------------
- -3-3-3-3-3-3-3-3-3-3-3-3-3-3-3-3-5-5-5-5-5-5-5-5-5-5-5-----------
- -2-2-2-2-2-2-2-2-2-2-2-2-2-2-2-2-5-5-5-5-5-5-5-5-5-5-5-----3-2---
- -3-3-3-3-3-3-3-3-3-3-3-3-3-3-3-3-5-5-5-5-5-5-5-5-5-5-5-2-3-----3-
- -1-1-1-1-1-1-1-1-1-1-1-1-1-1-1-1-3-3-3-3-3-3-3-3-3-3-3-----------
- -----------------------------------------------------------------

- -----------------------------------------------------------------
- -----------------------------------------------------------------
- -----------------------------------------------------------------
- ---------------------------------------------------------3-----5-
- -0-----00000---0---0---0000000-----00-00-0--0--0000000-0-3-0-0-3-
- -0-----00000---0---0---0000000-----00-00-0--0--0000000-0-3-0-0---
PM .......................................................   ...

- -1-1-1-1-1-1-1-1-1-1-1-1-1-1-1-1---------------------------------
- -3-3-3-3-3-3-3-3-3-3-3-3-3-3-3-3-5-5-5-5-5-5-5-5-5-5-5-----------
- -2-2-2-2-2-2-2-2-2-2-2-2-2-2-2-2-5-5-5-5-5-5-5-5-5-5-5-----3-2---
- -3-3-3-3-3-3-3-3-3-3-3-3-3-3-3-3-5-5-5-5-5-5-5-5-5-5-5-2-3-----3-
- -1-1-1-1-1-1-1-1-1-1-1-1-1-1-1-1-3-3-3-3-3-3-3-3-3-3-3-----------
- -----------------------------------------------------------------

- -----------------------------------------------------------------
- -----------------------------------------------------------------
- -----------------------------------------------------------------
- ---------------------------------------------------------7---7\5-
- -0-----00000---0---0---0000000-----00-00-0--0--0000000-0-5---5\3-
- -0-----00000---0---0---0000000-----00-00-0--0--0000000-0---------
PM .......................................................

- -1-1-1-1-1-1-1-1-1-1-1-1-1-1-1-1---------------------------------
- -3-3-3-3-3-3-3-3-3-3-3-3-3-3-3-3-5-5-5-5-5-5-5-5-5-5-5-----------
- -2-2-2-2-2-2-2-2-2-2-2-2-2-2-2-2-5-5-5-5-5-5-5-5-5-5-5-----3-2---
- -3-3-3-3-3-3-3-3-3-3-3-3-3-3-3-3-5-5-5-5-5-5-5-5-5-5-5-2-3-----3-
- -1-1-1-1-1-1-1-1-1-1-1-1-1-1-1-1-3-3-3-3-3-3-3-3-3-3-3-----------
- -----------------------------------------------------------------

- -------------------------------------------------------------------
- -------------------------------------------------------------------
- -------------------------------------------------------------------
- ---------------------------------------------------------3---2/7---
- -0-----00000---0---0---0000000-----00-00-0---0---0-0-0-0-3-0-2/7---
- -0-----00000---0---0---0000000-----00-00-0---0---0-0-0-0-3-0-2/7-0-
PM .......................................................   .

[Riff 11b, Guitar 1 & 2] - [04:00] - [04:46]
- -13/--17-------18-17---------------------20-------18-17------------
- -----------------------18v--------------------------------20v------
- -------------------------------------------------------------------
- -------------------------------------------------------------------
- -------------------------------------------------------------------
- -------------------------------------------------------------------
-
- -------------------------------------------------------------------
- -------------------------------------------------------------------
- -------------------------------------------------------------------
- -------------------------------------------------------------------
- -------------------------------------------------------------------
- -------------------------------------------------------------------


- -13/--17-------18-17----------------13/--17-------18-17------------
- -----------------------18v--------------------------------18v------
- -------------------------------------------------------------------
- -------------------------------------------------------------------
- -------------------------------------------------------------------
- -------------------------------------------------------------------
-
- ------------------------------------10/--13-------15-13------------
- ----------------------------------------------------------15v------
- -------------------------------------------------------------------
- -------------------------------------------------------------------
- -------------------------------------------------------------------
- -------------------------------------------------------------------



- -13/--17-------18-17---------------------20-------18-17------------
- -----------------------18v--------------------------------20v------
- -------------------------------------------------------------------
- -------------------------------------------------------------------
- -------------------------------------------------------------------
- -------------------------------------------------------------------
-
- -------------------------------------------------------------------
- -------------------------------------------------------------------
- -------------------------------------------------------------------
- -------------------------------------------------------------------
- -------------------------------------------------------------------
- -------------------------------------------------------------------



- -13/--17-------18-17----------------13/--17-------18-17------------
- -----------------------18v--------------------------------18v------
- -------------------------------------------------------------------
- -------------------------------------------------------------------
- -------------------------------------------------------------------
- -------------------------------------------------------------------
-
- ------------------------------------10/--13-------15-13------------
- ----------------------------------------------------------15v------
- -------------------------------------------------------------------
- -------------------------------------------------------------------
- -------------------------------------------------------------------
- -------------------------------------------------------------------



- -13/--17-------18-17-----------------------------------------------
- -----------------------18v---------------17-------18-17------------
- ----------------------------------------------------------17v------
- -------------------------------------------------------------------
- -------------------------------------------------------------------
- -------------------------------------------------------------------
-
- -10/--13-------15-13-----------------------------------------------
- -----------------------15v---------------13-------15-13------------
- ----------------------------------------------------------12v------
- -------------------------------------------------------------------
- -------------------------------------------------------------------
- -------------------------------------------------------------------


- -13/--17-------18-17----------------13/--17-------18-17------------
- -----------------------18v--------------------------------18v------
- -------------------------------------------------------------------
- -------------------------------------------------------------------
- -------------------------------------------------------------------
- -------------------------------------------------------------------
-
- -10/--13-------15-13----------------10/--13-------15-13------------
- -----------------------15v--------------------------------15v------
- -------------------------------------------------------------------
- -------------------------------------------------------------------
- -------------------------------------------------------------------
- -------------------------------------------------------------------



- -13/--17-------18-17-----------------------------------------------17~-------------
- -----------------------18v---------------17-------18-17---20br---------------------
- -----------------------------------------------------------------------------------
- -----------------------------------------------------------------------------------
- -----------------------------------------------------------------------------------
- -----------------------------------------------------------------------------------
-
- -10/--13-------15-13-----------------------------------------------13~-------------
- -----------------------15v---------------13-------15-13---17br---------------------
- -----------------------------------------------------------------------------------
- -----------------------------------------------------------------------------------
- -----------------------------------------------------------------------------------
- -----------------------------------------------------------------------------------

[Symbols]

PM... Palm Mute notes with (...) under them
AP... Alternate Pick notes with (...) under them
h     Hammer On
p     Pull Off
[ ]   Harmonic
/     Slide Up
\     Slide Down
x     Dead Note
b     Bend
p     Pre-Bend
r     Release Bend
(x )  Play Notes x amount of times
~     Let Ring
/ 3 \ Notes are triplets (3 notes in the space of two)
w\    Whammy Bar Down
w/    Whammy Bar Up
T     Right Hand Tap

:)
Добавлено: 29.08.2015
Другие материалы по этой песне:

Страница создана 29.08.2015
http://primanota.ru/august-burns-red/ghosts-chords.htm
Привет, Гость.
Предлагаем пройти революционный курс по гитаре.
Подарок от PrimaNota.Ru, забирай!