PrimaNota.ru - самый крупный в мире бесплатный архив песенных текстов, аккордов, табулатур и нот


August Burns Red - Majoring In The Minors - таба, видео

Регистрация Запомнить меня
Войти через:  Facebook Google Twitter Vk Yandex Mail.ru

August Burns Red - Majoring In The Minors - таба, видео

Печатать
Просмотров: 143
[Majoring In The Minors]
[August Burns Red]
[Found In Far Away Places]

Tuning: CGCFAD (Drop C)
joshuaoliveira@hotmail.com

[Riff 1] - [00:00] - [00:15]
- ---------------------------------|
- -0-0-0-0-0-0-0-0-0-0-0-0-0-------|
- -5-5-5-5-5-5-5-5-5-5-5-5-5-------|
- -2-2-2-2-2-2-2-2-2-2-2-2-2-------|
- -0-0-0-0-0-0-0-0-0-0-0-0-0-------|
- ---------------------------------|

- ---------------------------------3-3-3-3-3-3-3-3-----------------|
- -0-0-0-0-0-0-0-0-0-0-0-0-0-0-0-0-6-6-6-6-6-6-6-6-----------------|
- -5-5-5-5-5-5-5-5-5-5-5-5-5-5-5-5-5-5-5-5-5-5-5-5-7-7-7-7-7-7-7-7-|
- -2-2-2-2-2-2-2-2-2-2-2-2-2-2-2-2-3-3-3-3-3-3-3-3-9-9-9-9-9-9-9-9-|
- -0-0-0-0-0-0-0-0-0-0-0-0-0-0-0-0-3-3-3-3-3-3-3-3-5-5-5-5-5-5-5-5-|
- ---------------------------------3-3-3-3-3-3-3-3-5-5-5-5-5-5-5-5-|

- ---------------------------------3-3-3-3-3-3-3-3-----------------|
- -0-0-0-0-0-0-0-0-0-0-0-0-0-0-0-0-6-6-6-6-6-6-6-6-----------------|
- -5-5-5-5-5-5-5-5-5-5-5-5-5-5-5-5-5-5-5-5-5-5-5-5-7-7-7-7-7-7-7-7-|
- -2-2-2-2-2-2-2-2-2-2-2-2-2-2-2-2-3-3-3-3-3-3-3-3-9-9-9-9-9-9-9-9-|
- -0-0-0-0-0-0-0-0-0-0-0-0-0-0-0-0-3-3-3-3-3-3-3-3-5-5-5-5-5-5-5-5-|
- ---------------------------------3-3-3-3-3-3-3-3-5-5-5-5-5-5-5-5-|

[Riff 2a] - [00:15] - [00:27]
- -----------------------------------------------------------------|
- -----0-----0-----0-----0-----0-0-----0-----0---------0-----0-----|
- -----5-----5-----5-----5-----5-5-----5-----5---------5-----5-----|
- -2-2---222---2-2---222---2-2-------------------------------------|
- -0-0---000---0-0---000---0-0-----3-3---333---3-3-5-5---555---5-5-|
- ---------------------------------3-3---333---3-3-5-5---555---5-5-|
PM ...   ...   ...   ...   ...     ...   ...   .......   ...   ...

- -----------------------------------------------------------------|
- -----0-----0-----0-----0-----0-0-----0-----0---------0-----------|
- -----5-----5-----5-----5-----5-5-----5-----5---------5-----------|
- -2-2---222---2-2---222---2-2-------------------------------------|
- -0-0---000---0-0---000---0-0-----3-3---333---3-3-5-5---5-555-555-|
- ---------------------------------3-3---333---3-3-5-5---5-555-555-|
PM ...   ...   ...   ...   ...     ...   ...   .......   .........

[Riff 2b] - [00:15] - [00:27]
- ------------------------------------------------------------------------------------------|
- ------------------------------------------------------------------------------------------|
- -9-9-9-9-9-9-9-9/12-12-12-12-12-12\-------------------------------------------------------|
- ------------------------------------10--12-12-12-12-12-12-12-12-12br--12-12-12-12-12-12\--|
- ------------------------------------------------------------------------------------------|
- ------------------------------------------------------------------------------------------|

- --------------------------------------------------------------------------------|
- --------------------------------------------------------------------------------|
- -9-9-9-9-9-9-9-9/12-12-12-12-12-12\---------------------------------------------|
- ------------------------------------10--12-12-12-12-12-12-12-12\9-9-9-9-9-9-9-9-|
- --------------------------------------------------------------------------------|
- --------------------------------------------------------------------------------|

[Riff 1] - [00:27] - [00:39]

[Riff 3] - [00:27] - [00:39]
- --------------------15-----------------------------------------------------------|
- -13b----13v----12------13v--12v--------------------------------------------------|
- -----------------------------------12--12/14v------------------------------------|
- -------------------------------------------------14-----14p12-12v----14v---------|
- ----------------------------------------------------------------------------14---|
- ---------------------------------------------------------------------------------|

- ----------------------------------------------15-15/17v----15v----------------------------------------|
- -------------------------13-------------------------------------------15-----15/17v-------------------|
- ----------12----------16----16-12/14-17-16-17-----------------------------------------16---17v--------|
- ----12-14----14-12-14---------------------------------------------------------------------------------|
- -15---------------------------------------------------------------------------------------------------|
- ------------------------------------------------------------------------------------------------------|

[Riff 4] - [00:39] - [00:59]
- ---------------------------------------------------------|
- ---------0-0---0---------0-0---0---------0-0---0---------|
- ---------5-5---5---------5-5---5---------5-5---5---------|
- -2-222-2-----2---2-222-2-----2---2-222-2-----2-----------|
- -0-000-0-----0---0-000-0-----0---0-000-0-----0---3-333-0-|
- -------------------------------------------------3-333-0-|
PM .......     .   .......     .   .......     .   .......

- -----------------------------------------------------------------|
- ---------0-0---0---------0-0---0---------0-0---0-----------------|
- ---------5-5---5---------5-5---5---------5-5---5-----------------|
- -2-222-2-----2---2-222-2-----2---2-222-2-----2-------------------|
- -0-000-0-----0---0-000-0-----0---0-000-0-----0---3-333-3-000-000-|
- -------------------------------------------------3-333-3-000-000-|
PM .......     .   .......     .   .......     .   ...............

[Riff 5, Guitar 1 & 2] - [00:59] - [01:09]
- -12------------------------------------------------------|
- -------------10------------------------------------------|
- -------------------------9b------------------9v----------|
- ---------------------------------------------------------|
- ---------------------------------------------------------|
- ---------------------------------------------------------|
-
- ---------------------------------------------------------|
- ---------------------------------------------------------|
- ---------------------------------------------------------|
- ---------------------------------------------------------|
- -0-000-0-----0---0-000-0-----0---0-000-0-----0---3-333-0-|
- -2-222-2-----2---2-222-2-----2---2-222-2-----2---3-333-0-|
PM .......................................................

- -12--------------------------------------------------------------|
- -------------10--------------------------------------------------|
- -------------------------9b------------------9v----------9-------| harmony note on the end
- ---------------------------------------------------------10------| (two guitars)
- -----------------------------------------------------------------|
- -----------------------------------------------------------------|
-
- -----------------------------------------------------------------|
- -----------------------------------------------------------------|
- -----------------------------------------------------------------|
- -----------------------------------------------------------------|
- -0-000-0-----0---0-000-0-----0---0-000-0-----0---3-333-3-000-000-|
- -2-222-2-----2---2-222-2-----2---2-222-2-----2---3-333-3-000-000-|
PM ...............................................................

7/8

[Riff 6, Guitar 1 & 2] - [01:09] - [01:28]
- -12------------------------------------------------------|
- -------------10------------------------------------------|
- -------------------------9b--------------------9v--------|
- ---------------------------------------------------------|
- ---------------------------------------------------------|
- ---------------------------------------------------------|
-
- ---------------------------------------------------------|
- -----3---5p3-------3---5p3-------3---5p3-------3---5p3---|
- ---2---2-----2---2---2-----2---2---2-----2---2---2-----2-|
- -3-------------3-------------3-------------3-------------|
- ---------------------------------------------------------|
- ---------------------------------------------------------|
PM ...   .       ...   .       ...   .       ...   .


- -12------------------------------------------------------|
- -------------10------------------------------------------|
- -------------------------9b------------------------------|
- ---------------------------------------------------------|
- ---------------------------------------------------------|
- ---------------------------------------------------------|
-
- ---------------------------------------------------------|
- -----------------------1-----------------------------1-5-|
- -----2---4p2-------2-----2-------2---4p2-------2---4-----|
- ---2---2-----2---2---2-----2---2---2-----2---2---2-------|
- -0-------------0-------------0-------------0-------------|
- ---------------------------------------------------------|
PM ...   .       ...   .       ...   .       ...   .


- -12------------------------------------------------------|
- -------------10------------------------------------------|
- -------------------------9b--------------------9v--------|
- ---------------------------------------------------------|
- ---------------------------------------------------------|
- ---------------------------------------------------------|
-
- ---------------------------------------------------------|
- -----3---5p3-------3---5p3-------3---5p3-------3---5p3---|
- ---2---2-----2---2---2-----2---2---2-----2---2---2-----2-|
- -3-------------3-------------3-------------3-------------|
- ---------------------------------------------------------|
- ---------------------------------------------------------|
PM ...   .       ...   .       ...   .       ...   .


- -12--------------------------------------------------------------|
- -------------10--------------------------------------------12v---|
- -------------------------9b--------------------------------------|
- -----------------------------------------------------------------|
- -----------------------------------------------------------------|
- -----------------------------------------------------------------|
-
- -----------------------------------------------------------------|
- -----------------------1-------------------------------5-3-5-3---|
- -----2---4p2-------2-----2-------2---4p2-------2---4-5---------4-|
- ---2---2-----2---2---2-----2---2---2-----2---2---2---------------|
- -0-------------0-------------0-------------0---------------------|
- -----------------------------------------------------------------|
PM ...   .       ...   .       ...   .       ...   .


[Riff 7a] - [01:28] - [01:50----------------------------------------| - [x2]
- ------------------------------------------------------------------|
- ------------------------------------------------------------------|
- -5-5-5-5-5-5-5-5-5-5-5-5-5-5-5-5-7-7-7-7-7-7-7-7-7-7-7-7-7-7-7-7--|
- -2-2-2-2-2-2-2-2-2-2-2-2-2-2-2-2-5-5-5-5-5-5-5-5-5-5-5-5-5-5-5-5--|
- -0-0-0-0-0-0-0-0-0-0-0-0-0-0-0-0-3-3-3-3-3-3-3-3-3-3-3-3-3-3-3-3--|
- ------------------------------------------------------------------|

- -----------------------------------------------------------------|
- -----------------------------------------------------------------|
- ---------------------------------5-5-5-5-5-5-5-5-----------------|
- -9-9-9-9-9-9-9-9-9-9-9-9-9-9-9-9-2-2-2-2-2-2-2-2-6-6-6-6---------|
- -5-5-5-5-5-5-5-5-5-5-5-5-5-5-5-5-0-0-0-0-0-0-0-0-2-2-2-2-222-222-|
- -5-5-5-5-5-5-5-5-5-5-5-5-5-5-5-5-----------------2-2-2-2-222-222-|
PM                                                         .......

[Riff 7b, Guitar 1 & 2] - [01:28] - [01:50]
- ----------------------------15----------------------------------------------------------------13-|
- -13-15-13/15-17-15-------------17-15-13-15-17-13-13-15-13/15-17-15----------------15-17-15-17----|
- -------------------17-16-17----------------------------------------17-16-12-14/17----------------|
- -------------------------------------------------------------------------------------------------|
- -------------------------------------------------------------------------------------------------|
- -------------------------------------------------------------------------------------------------|
-
- ----------------------------12----------------------------------------------------------------10-|
- -10-12-10/12-13-12-------------13-12-10-12-13-10-10-12-10/12-13-12----------------12-13-12-13----|
- -------------------14-12-14----------------------------------------14-12-9--10/14----------------|
- -------------------------------------------------------------------------------------------------|
- -------------------------------------------------------------------------------------------------|
- -------------------------------------------------------------------------------------------------|


- -15----------------------------------------------------------------------------------------------|
- ----15-------------------17----------15----17----13-15-13----------------------------------------|
- -------17-16----14-16-17----14-16-17----17----16----------14-12-14----------------------13-14-16-|
- -------------17----------------------------------------------------12-14----------14/15----------|
- -------------------------------------------------------------------------12-14-15----------------|
- -------------------------------------------------------------------------------------------------|
-
- -12----------------------------------------------------------------------------------------------|
- ----12-------------------13----------12----13----10-12-10----------------------------------------|
- -------14-12----10-12-14----10-12-14----14----12----------10-9--10----------------------9--10-12-|
- -------------14----------------------------------------------------9--10----------10/12----------|
- -------------------------------------------------------------------------7--10-12----------------|
- -------------------------------------------------------------------------------------------------|


[Riff 8a, Guitar 1 & 2] - [01:50] - [02:10]
- ------------------------------------------------------------------------|
- -----------------------------------------------------------------10(x4)-|
- -5(x28)----------------------7(x4)-9(x20)------------7(x4)-5(x4)--------|
- ------------------------------------------------------------------------|
- ------------------------------------------------------------------------|
- ------------------------------------------------------------------------|
AP ......................................................................
- ------------------------------------------------------------------------|
- -----------------------------------------------------------5(x8)--------|
- -2(x28)----------------------4(x4)-5(x24)-------------------------------|
- ------------------------------------------------------------------------|
- ------------------------------------------------------------------------|
- ------------------------------------------------------------------------|
AP ......................................................................


- -------------------------8(x4)-7(x4)-5(x16)-----------------------------|
- -8(x28)----------------------------------------------5(x16)-------------|
- ------------------------------------------------------------------------|
- ------------------------------------------------------------------------|
- ------------------------------------------------------------------------|
- ------------------------------------------------------------------------|
AP ......................................................................
- ------------------------------------------------------------------------|
- -3(x28)-----------------------------------------------------------------|
- -------------------------------4(x4)-5(x16)----------1(x16)-------------|
- ------------------------------------------------------------------------|
- ------------------------------------------------------------------------|
- ------------------------------------------------------------------------|
AP ......................................................................


- ------------------------------------------------------------------------|
- -----------------------------------------------------------------10(x4)-|
- -5(x28)----------------------7(x4)-9(x20)------------7(x4)-5(x4)--------|
- ------------------------------------------------------------------------|
- ------------------------------------------------------------------------|
- ------------------------------------------------------------------------|
AP ......................................................................
- ------------------------------------------------------------------------|
- -----------------------------------------------------------5(x8)--------|
- -2(x28)----------------------4(x4)-5(x24)-------------------------------|
- ------------------------------------------------------------------------|
- ------------------------------------------------------------------------|
- ------------------------------------------------------------------------|
AP ......................................................................


- -------------------------8(x4)-7(x4)------------------------------------|
- -8(x28)-----------------------------------------------------------------|
- ------------------------------------5/9------------\4-------------------|
- ------------------------------------------------------------------------|
- ------------------------------------------------------------------------|
- ------------------------------------------------------------------------|
AP ...................................
- ------------------------------------------------------------------------|
- -3(x28)-----------------------------------------------------------------|
- -------------------------4(x8)------4/5------------\1-------------------|
- ------------------------------------------------------------------------|
- ------------------------------------------------------------------------|
- ------------------------------------------------------------------------|
AP ...................................


[Riff 8b] - [02:00] - [02:10]
- -17v-------------15-17/19\17-15-------------------------20\19-15/17\-|
- --------------------------------17v----------------------------------|
- ---------------------------------------------------------------------|
- ---------------------------------------------------------------------|
- ---------------------------------------------------------------------|
- ---------------------------------------------------------------------|

- \15v------------------------20\19-15--------------------------------|
- -------------------------15----------15/17v-------------------------|
- --------------------------------------------------------16----------|
- --------------------------------------------------------------------|
- --------------------------------------------------------------------|
- --------------------------------------------------------------------|

clean

[Riff 9a] - [02:10] - [03:06]
- -----------------------------------------------------------------|
- -----------------------------------------------------------------|
- -----5---------------5---------------5---------------5-----------|
- -------7-----7---------7-----7---------7-----7---------7-----7---|
- ---------7---------------7---------------7---------------7-------|
- -7---------------7---------------7---------------7---------------|

- -----------------------------------------------------------------|
- -----------------------------------------------------------------|
- -----5---------------5---------------1---------------1-----------|
- -------7-----7---------7-----7---------2-----2---------2-----2---|
- ---------7---------------7---------------2---------------2-------|
- -7---------------7---------------2---------------2---------------|

- -----------------------------------------------------------------|
- -----------------------------------------------------------------|
- -----5---------------5---------------5---------------5-----------|
- -------7-----7---------7-----7---------7-----7---------7-----7---|
- ---------7---------------7---------------7---------------7-------|
- -7---------------7---------------7---------------7---------------|

- -----------------------------------------------------------------|
- -----------------------------------------------------------------|
- -----9---------------9---------------9---------------9-----------|
- -------10----10--------10----10--------10----10--------10----10--|
- ---------10--------------10--------------10--------------10------|
- -10--------------10--------------10--------------10--------------|

- -----------------------------------------------------------------|
- -----------------------------------------------------------------|
- -----4---------------4---------------4---------------4-----------|
- -------5-----5---------5-----5---------5-----5---------5---------|
- ---------5---------------5---------------5---------------5-------|
- -5---------------5---------------5---------------5-----------5/--|

- -----------------------------------------------------------------|
- -----------------------------------------------------------------|
- -----5---------------5---------------1---------------1-----------|
- -------7-----7---------7-----7---------2-----2---------2-----2---|
- ---------7---------------7---------------2---------------2-------|
- /7---------------7---------------2---------------2---------------|

- -----------------------------------------------------------------|
- -----------------------------------------------------------------|
- -----5---------------5---------------5---------------5-----------|
- -------7-----7---------7-----7---------7-----7---------7-----7---|
- ---------7---------------7---------------7---------------7-------|
- -7---------------7---------------7---------------7---------------|

- -----------------------------------------------------------------|
- -----------------------------------------------------------------|
- -----9---------------9---------------9---------------9-----------|
- -------10----10--------10----10--------10----10--------10----10--|
- ---------10--------------10--------------10--------------10------|
- -10--------------10--------------10--------------10--------------|

- -----------------------------------------------------------------|
- -----------------------------------------------------------------|
- -----4---------------4---------------4---------------4-----------|
- -------5-----5---------5-----5---------5-----5---------5---------|
- ---------5---------------5---------------5---------------5-------|
- -5---------------5---------------5---------------5-----------5/--|

- -------------------------------------------------------------------|
- -------------------------------------------------------------------|
- -----5---------------5---------------------------------------------|
- -------7-----7---------7-----7---6----------------2--2--2--6--6--6-|
- ---------7---------------7-------2--2--2--2--222--2--2--2--2--2--2-|
- /7---------------7---------------2--2--2--2--222--2--2--2--2--2--2-|
PM                                    ............

[Riff 9b] - [02:18] - [02:34]
- -0---0---3---3---3---3---5---0---|
- -1---1---1---1---0---0---5---0---|
- -2---2---0---0---0---0---2---1---|
- -2---2---2---2---0---0---2---2---|
- ---------------------------------|
- ---------------------------------|

[Riff 9c] - [02:34] - [03:06]
- ----------0-----------0-------3------3h5p3-------------------3p0---------------------|
- -----1-------1--0h1/3----3-------5v--------5-3h4h5-5p3-----------3---3br-------------|
- -0h2----2-------------------5--------------------------5-2-5-------5-----5-2-----5-7-|
- ------------------------------------------------------------------------------/7-----|
- -------------------------------------------------------------------------------------|
- -------------------------------------------------------------------------------------|

- ----------3p0-----------3p0-------------------3---3-/8-7-----10-10br--8-7v-----------------7-------------|
- -----3h5------3-3p0---3-----3---------3---3h5---5---------8----------------------------------9-10v-------|
- -4h5----------------5---------4-0h2h4---4------------------------------------------------9---------------|
- ----------------------------------------------------------------------------------7h9h10-----------------|
- ------------------------------------------------------------------------------5h7------------------------|
- ---------------------------------------------------------------------------------------------------------|

[Riff 10, Guitar 1 & 2] - [03:06] - [03:33]
- ---------------------------------------------------------------------------------------------|
- ---------------------------------------------------------------------------------------------|
- ---------------------------------------------------------------------------------------------|
- -2---------------------------------------------2-----------------------3~--------5~----------|
- -0---------------------------------------------0-----------------------3~--------5~----------|
- -----------------------------------------------------------------------3~--------5~----------|
-
- ---------------------------------------------------------------------------------------------|
- ---------------------------------------------------------------------------1p0h1-3-3-3-3p1h3-|
- -2-2-2-------------2---------------------------2-2-2-------------2-----2v--------------------|
- -------2-2-2-0-2-3---3-2-----------------------------2-2-2-0-2-3---3-2-----------------------|
- -------------------------0h3-3-3-3-3-3/5-5-5v------------------------------------------------|
- ---------------------------------------------------------------------------------------------|
PM               ...   ...                                     ...   ...


- ---------------------------------------------------------------------------------------------|
- ---------------------------------------------------------------------------------------------|
- ---------------------------------------------------------------------------------------------|
- -2---------------------------------------------2-----------------------2~--------6~----------|
- -0---------------------------------------------0-----------------------2~--------6~----------|
- -----------------------------------------------------------------------2~--------6~----------|
-
- ---------------------------------------------------------------------------------------------|
- ---------------------------------------------------------------------------------------------|
- -2-2-2-------------2---------------------------2-2-2-------------2---------------------------|
- -------2-2-2-0-2-3---3-2-----------------------------2-2-2-0-2-3---3-2-------------2/6-6-6v--|
- -------------------------0h3-3-3-3-3-3/5-5-5v--------------------------3/7-7-7v--------------|
- ---------------------------------------------------------------------------------------------|
PM               ...   ...                                     ...   ...


- -------------------------------------------------------------------------------------------------|
- -------------------------------------------------------------------------------------------------|
- -------------------------------------------------------------------------------------------------|
- -2-2-2-2-2-2-2-2-2-2-2-2-3-3-3-3-3-3-5-5-5-5-5-5-2-2-2-2-2-2-2-2-2-2-2-2-3-3-3-3-3-3-5-5-5-5-5-5-|
- -0-0-0-0-0-0-0-0-0-0-0-0-3-3-3-3-3-3-5-5-5-5-5-5-0-0-0-0-0-0-0-0-0-0-0-0-3-3-3-3-3-3-5-5-5-5-5-5-|
- -------------------------3-3-3-3-3-3-5-5-5-5-5-5-------------------------3-3-3-3-3-3-5-5-5-5-5-5-|
-
- ---------------------------------------------------------------------------------------------|
- ---------------------------------------------------------------------------1p0h1-3-3-3-3p1h3-|
- -2-2-2-------------2---------------------------2-2-2-------------2-----2v--------------------|
- -------2-2-2-0-2-3---3-2-----------------------------2-2-2-0-2-3---3-2-----------------------|
- -------------------------0h3-3-3-3-3-3/5-5-5v------------------------------------------------|
- ---------------------------------------------------------------------------------------------|
PM               ...   ...                                     ...   ...


- -------------------------------------------------------------------------------------------------|
- -------------------------------------------------------------------------------------------------|
- -------------------------------------------------------------------------------------------------|
- -2-2-2-2-2-2-2-2-2-2-2-2-3-3-3-3-3-3-5-5-5-5-5-5-2-2-2-2-2-2-2-2-2-2-2-2-2~----------6~----------|
- -0-0-0-0-0-0-0-0-0-0-0-0-3-3-3-3-3-3-5-5-5-5-5-5-0-0-0-0-0-0-0-0-0-0-0-0-2~----------6~----------|
- -------------------------3-3-3-3-3-3-5-5-5-5-5-5-------------------------2~----------6~----------|
-
- ---------------------------------------------------------------------------------------------|
- ---------------------------------------------------------------------------------------------|
- -2-2-2-------------2---------------------------2-2-2-------------2---------------------------|
- -------2-2-2-0-2-3---3-2-----------------------------2-2-2-0-2-3---3-2-------------2/6-6-6v--|
- -------------------------0h3-3-3-3-3-3/5-5-5v--------------------------3/7-7-7v--------------|
- ---------------------------------------------------------------------------------------------|
PM               ...   ...                                     ...   ...

[Riff 11a] - [03:33] - [03:48]
- -------------------------------------------------------------------------------------------------|
- -------------------------------------------------------------------------------------------------|
- -------------------------------------------------------------------------------------------------|
- -2-----2-2-2-2-----2-2-2-3-----3-3-3-5-----5-5-5-2-----2-2-2-2-----2-2-2-3-----3-3-3-5-----------|
- -0-----0-0-0-0-----0-0-0-3-----3-3-3-5-----5-5-5-0-----0-0-0-0-----0-0-0-3-----3-3-3-5-----5-5-5-|
- -------------------------3-----3-3-3-5-----5-5-5-------------------------3-----3-3-3-5-----5-5-5-|
PM                                                                                           .....
- -------------------------------------------------------------------------------------------------|
- -------------------------------------------------------------------------------------------------|
- -------------------------------------------------------------------------------------------------|
- -2-----2-2-2-2-----2-2-2-3-----3-3-3-5-----5-5-5-2-----2-2-2-2-----2-2-2-2~----------6-----------|
- -0-----0-0-0-0-----0-0-0-3-----3-3-3-5-----5-5-5-0-----0-0-0-0-----0-0-0-2~----------6-----------|
- -------------------------3-----3-3-3-5-----5-5-5-------------------------2~----------6-----------|

[Riff 11b, Guitar 1 & 2] - [03:33] - [03:48]
- -12---------------------------------------------20v-----------20h22p22----------20h22p20-22b---22-20-------|
- -15br-----15-15-13---13h15p13-12------/20h21h22------20h21h22----------20h21h22----------------------22-20-|
- -----------------------------------------------------------------------------------------------------------|
- -----------------------------------------------------------------------------------------------------------|
- -----------------------------------------------------------------------------------------------------------|
- -----------------------------------------------------------------------------------------------------------|
-
- -----------------------------------------------------------------------------------------------------------|
- -----------------------------------------------------------------------------------------------------------|
- -----------------------------------------------------------------------------------------------------------|
- -----------------------------------------------------------------------------------------------------------|
- -----------------------------------------------------------------------------------------------------------|
- -----------------------------------------------------------------------------------------------------------|


- -------------24-20---------------------------------------------------12------16--\---|
- -------------------22-21v----22---\--------------------13p12h13-15v--15b-------------|
- -21v------------------------------------------12h13h14-------------------------------|
- -------------------------------------12h13h14----------------------------------------|
- -------------------------------------------------------------------------------------|
- -------------------------------------------------------------------------------------|
-
- -17v---------20-17-------------------------------------------------------------------|
- -------------------18-17v------------------------------------------------------------|
- -----------------------------19v-----------------------------------------------------|
- -------------------------------------------------------------------------------------|
- -------------------------------------------------------------------------------------|
- -------------------------------------------------------------------------------------|

[Riff 12a] - [03:48] - [04:18]
- -----------------------------------------------------------------|
- -----------------------------------------------------------------|
- -----------------------------------------------------------------|
- -2~--------------3~--------------5~--------------2~------2~------|
- -0~--------------3~--------------5~--------------0~------2~------|
- -----------------3~--------------5~----------------------2~------|

- -----------------------------------------------------------------|
- -----------------------------------------------------------------|
- -----------------------------------------------------------------|
- -2~--------------3~--------------5~--------------2~------2~------|
- -0~--------------3~--------------5~--------------0~------2~------|
- -----------------3~--------------5~----------------------2~------|

- -----------------------------------------------------------------|
- -----------------------------------------------------------------|
- -----------------------------------------------------------------|
- -2-222-2-222-2-2---------------------------------2-222-2---------|
- -0-000-0-000-0-0-3-333-3-333-3-3-5-555-5-555-5-5-0-000-0-2-222-2-|
- -----------------3-333-3-333-3-3-5-555-5-555-5-5---------2-222-2-|
PM ...............................................................

- ---------------------------------------------------------------------------------|
- ---------------------------------------------------------------------------------|
- ---------------------------------------------------------------------------------|
- -2~--------------3~--------------5~--------------2~------2~------2~--------------|
- -0~--------------3~--------------5~--------------0~------2~------0~--------------|
- -----------------3~--------------5~----------------------2~----------------------|

[Riff 12b, Guitar 1 & 2] - 03:48] - [04:18]
- ------------------------------------------------------------------------12-10-12-13--------------|
- ------------------------------------------------------------------10-12-------------12/13--------|
- -10------------------------12-10-9-----------------14-14-10-9--13-------------------------13-----|
- ----14-9/10----14-10----10----------12/14-12-10----------------------------------------------14--|
- ------------12-------14-------------------------10-----------------------------------------------|
- -------------------------------------------------------------------------------------------------|
-
- ------------------------------------------------------------------------8--7--8--8---------------|
- ---------------------------------------------------------------------8--------------9/10---------|
- -7----------------------------7-----------------------7--7-----7--9-----------------------9------|
- ----10-5/7-----10-7-----7--10----10-9/10--9--7--9--10-------10-------------------------------9---|
- ------------7--------10--------------------------------------------------------------------------|
- -------------------------------------------------------------------------------------------------|


- ------------------------------------------------------------------------12-10-12-13--------------|
- ------------------------------------------------------------------10-12-------------12/13--------|
- -10------------------------12-10-9-----------------14-14-10-9--13-------------------------13-----|
- ----14-9/10----14-10----10----------12/14-12-10----------------------------------------------14--|
- ------------12-------14-------------------------10-----------------------------------------------|
- -------------------------------------------------------------------------------------------------|
-
- ------------------------------------------------------------------------8--7--8--8---------------|
- ---------------------------------------------------------------------8--------------9/10---------|
- -7----------------------------7-----------------------7--7-----7--9-----------------------9------|
- ----10-5/7-----10-7-----7--10----10-9/10--9--7--9--10-------10-------------------------------9---|
- ------------7--------10--------------------------------------------------------------------------|
- -------------------------------------------------------------------------------------------------|


- ------------------------------------------------------------------|
- ------------------------------------------------------------------|
- ------------------------------------------------------------------|
- ------------------------------------------------------------------|
- -12v---------12-/15v-----------15-/17v----15----17---17br----15v--|
- ------------------------------------------------------------------|
-
- ------------------------------------------------------------------|
- ------------------------------------------------------------------|
- ------------------------------------------------------------------|
- -10v---------10-/14v-----------14-/17v----14----17---17br----14v--|
- ------------------------------------------------------------------|
- ------------------------------------------------------------------|


- ----------------------------------------------------------------------------------|
- ----------------------------------------------------------------------------------|
- -14v---------14-/17v-----------17-/19v----------19---19b----------14v-------------|
- ----------------------------------------------------------------------------------|
- ----------------------------------------------------------------------------------|
- ----------------------------------------------------------------------------------|
-
- ----------------------------------------------------------------------------------|
- -13v---------13-/17v-----------17-/20v----------20---20b--------------------------|
- ------------------------------------------------------------------17v-------------|
- ----------------------------------------------------------------------------------|
- ----------------------------------------------------------------------------------|
- ----------------------------------------------------------------------------------|

[Symbols]

PM... Palm Mute notes with (...) under them
AP... Alternate Pick notes with (...) under them
h     Hammer On
p     Pull Off
[ ]   Harmonic
/     Slide Up
\     Slide Down
x     Dead Note
b     Bend
p     Pre-Bend
r     Release Bend
(x )  Play Notes x amount of times
~     Let Ring
/ 3 \ Notes are triplets (3 notes in the space of two)
w\    Whammy Bar Down
w/    Whammy Bar Up
T     Right Hand Tap

:)
Добавлено: 29.08.2015
Другие материалы по этой песне:

Страница создана 29.08.2015
http://primanota.ru/august-burns-red/majoring-in-minors-chords.htm
Привет, Гость.
Предлагаем пройти революционный курс по гитаре.
Подарок от PrimaNota.Ru, забирай!