PrimaNota.ru - самый крупный в мире бесплатный архив песенных текстов, аккордов, табулатур и нот


August Burns Red - Home Alone Theme - таба, видео

Регистрация Запомнить меня
Войти через:  Facebook Google Twitter Vk Yandex Mail.ru

August Burns Red - Home Alone Theme - таба, видео

Печатать
Просмотров: 67
August Burns Red - Home Alone Christmas Theme Tab
By Jordan Atirene
My cover https://www.youtube.com/watch?v=gx7fatgFerM
Tuning Drop D
D A D G B E
bpm ~196

Guitar 1 0:00 - 0:43
E-------------------------------------------------------------------------------------___---------
B-----------------------------------------------------------------------------___----/   \--------
G--------------7-------------------------------------------------------------/   \--4h5h6h7--7----
D-7--4--7--4---------7---------9----7--------5---4--------------7---4---7---4h5h6h7-------------7-
A-------------------------7--------------5------------7-------------------------------------------
D-------------------------------------------------------------------------------------------------

E----------------------------------------------10-------------------------------------------------
B--------------------------------10--7--10--7-------10------12--10-----8--7----------10--7--10--7-
G----7---------------------------------------------------9----------7---------9-------------------
D-9-----5---4--7------4---------------------------------------------------------------------------
A-----------------5-------7-----------------------------------------------------------------------
D-------------------------------------------------------------------------------------------------

E-10-------------10-----------------10-10-10-10-10-10-10-10-9-9-9-9-9-9-9-9-10~~~---
B------10----12------8---7--10------------------------------------------------------
G-------------------------------7---------------------------------------------------
D-----------------------------------------------------------------------------------
A-----------------------------------------------------------------------------------
D-----------------------------------------------------------------------------------

Guitar 2 0:00 - 0:43
E--------------------------------------------------------------------------------
B--------------------------------------------------------------------------------
G--------------------------------------------------------------------------------
D--0--------------------5---------0-------------5------4----4------7-------------
A--0--------------------5---------0-------------5------5----5------7-------------
D--0--------------------5---------0-------------5------4----4------7-------------

E--------------------------------------------------------------------------------------
B--------------------------------------------------------------------------------------
G--------------------------------------------------------------------------------------
D--0-0-0-0-0-0-0-0-0-0-0-0-0-0-0-0--5-5-5-5-5-5-5-5--0-0-0-0-0-0-0-0--2-2-2-2-2-2-2-2--
A--0-0-0-0-0-0-0-0-0-0-0-0-0-0-0-0--5-5-5-5-5-5-5-5--0-0-0-0-0-0-0-0--2-2-2-2-2-2-2-2--
D--0-0-0-0-0-0-0-0-0-0-0-0-0-0-0-0--5-5-5-5-5-5-5-5--0-0-0-0-0-0-0-0--2-2-2-2-2-2-2-2--
   * * * * * * * * * * * * * * * *  * * * * * * * *  * * * * * * * *  * * * * * * * * 

E------------------------------------------------------
B------------------------------------------------------
G------------------------------------------------------
D--5-5-5-5-5-5-5-5--4-4-4-4-4-4-4-4--7-7-7-7-7-7-7-7---
A--5-5-5-5-5-5-5-5--5-5-5-5-5-5-5-5--7-7-7-7-7-7-7-7---
D--5-5-5-5-5-5-5-5--4-4-4-4-4-4-4-4--7-7-7-7-7-7-7-7---
   * * * * * * * *  * * * * * * * *  * * * * * * * *

E-----------------------------------------------------------------------------------------------
B--------------------------------------------------------------------------------_--------------
G-------------------------------------------------------------------------------/ \---7p4-------
D-------------------------------------5p4--------5--5--------------------------4h5h7-------4h7--
A--------5-----7p5-----5-----5--7----------5--------------9-----7-----5-------------------------
D--0--0-----0-------0-----0--------0----------0--------5-----5-----5-----0--0-------------------
   *  *     *       *     *        *          *        *     *     *     *  *

E----------------------------------------------------------------------------------------
B----------------------------------------------------------------------------------------
G------------------------------_----------------------------------------------7-----9\---
D--------5-----7p5------------/ \---7---------------4-----7p4--------7--9--7-----9-------
A----------------------9-----5-7-9-----5-7-9----------------------7----------------------
D--5--5-----5-------5-----0-------------------4--4-----4-------4-------------------------
   *  *     *       *     *                   *  *     *       * 

E-----------------------------------------------------------------------------------------------
B--------------------------------------------------------------------------------_--------------
G-------------------------------------------------------------------------------/ \---7p4-------
D-------------------------------------5p4--------5--5--------------------------4h5h7-------4h7--
A--------5-----7p5-----5-----5--7----------5--------------9-----7-----5-------------------------
D--0--0-----0-------0-----0--------0----------0--------5-----5-----5-----0--0-------------------
   *  *     *       *     *        *          *        *     *     *     *  *

E--------------------------------------------------------------------------------------------------
B--------------------------------------------------------------------------------------------------
G-----------------------------------------------------------------------------7-----9--------------
D--2-2---2---2---2---5-5---5---5---5---------------7--7--------------7--9--7-----9------0----------
A--2-2---2---2---2---5-5---5---5---5---------5--5--------5--5---------------------------0----------
D--2-2---2---2---2---5-5---5---5---5---4--4--------------------7--7---------------------0----------
                                       *  *                    *  *

Guitar 1 & 2 0:44
E-----------------------------------------------------------------------
B------------------------------------------15--14--13--12---------------
G--14------14h15p14--14------14h15p14--14------------------15--14-------
D------15----------------15----------------------------------------14---
A-----------------------------------------------------------------------
D-----------------------------------------------------------------------

E-----------------------------------------------------------------------
B----------------------------------------------15-----------------------
G--14------14h15p14--14------14h15p14--14--13------14-------------------
D------15----------------15----------------------------15--13--12--11---
A-----------------------------------------------------------------------
D-----------------------------------------------------------------------

E------------------------------------------17---------------------------
B----------------------------------------------18--15--17---------------
G--14------14h15p14--14------14h15p14--14----------------------12-------
D------15----------------15--------------------------------11------14---
A-----------------------------------------------------------------------
D-----------------------------------------------------------------------

Guitar 1 1:00
E--13-----------------------------------------------____-------------
B------14----------14---------------------____-----/    \---15-------
G----------15----------15----------------/    \---11h12h14-----------
D--------------15----------15-------12--11h12h14----------------0----
A------------------------------16-------------------------------0----
D---------------------------------------------------------------0----

Guitar 2 1:00
E-------------------------------------------------------
B-------------------------------------------------------
G-------------------------------------------------------
D--8---------4----3------3----2-----3----2----0----0----
A--8---------4----3------3----2-----3----2----0----0----
D--8---------4----3------3----2-----3----2----0----0----

Guitar 1 1:04 - 1:23
E----------------------------------------------------------------
B----------------------------------------------------------------
G---16h17p16--14---------13--13--13--13--------------------------
D-----------------15---------------------12---12--10-------------
A-----------------------------------------------------12--10--8~~
D----------------------------------------------------------------
                                               *  *   *    *  

E----------------------------------------------------------------------------------------
B----------------------------------------------------------------------------------------
G--16h17p16--14--------14--13------------------16h17p16--14----------------15------------
D----------------15------------12--14--(14)------------------15--14h15h17----------------
A------------------------------------------------------------------------------17--16----
D----------------------------------------------------------------------------------------

E----------------------------------------------------------------------------
B----------------------------------____----------------13--15----------------
G---------------------------------/    \---12--14--15------------------------
D--12--15---12--12h14p12--11-----12h13h15------------------------0----12-----
A----------------------------------------------------------------0----12-----
D----------------------------------------------------------------0----12-----

Guitar 2 1:04 - 1:23 Breakdown
E-----------------------------------------------------------------------------------
B-----------------------------------------------------------------------------------
G-----------------------------------------------------------------------------------
D--0-0---0--0--------0-----0--0--------0--0--------0--0--0--------------------------
A--0-0---0--0--------0-----0--0--------0--0--------0--0--0--------------------------
D--0-0---0--0--------0-----0--0--------0--0--------0--0--0--------------------------
   * *   *  *        *     *  *        *  *        *  *  *   

E------------------------------------------------------------------------------------------
B------------------------------------------------------------------------------------------
G-----------------------------------------------------------------7-6----------------------
D--0-0-0-0---0---0-----0---0-0----0-0----0--------6h7p6---------7---------0-0-0----0---0-0-
A--0-0-0-0---0---0-----0---0-0----0-0----0----------------8-7-8-----------0-0-0----0---0-0-
D--0-0-0-0---0---0-----0---0-0----0-0----0--------------------------------0-0-0----0---0-0-
   * * * *       *     *   * *    * *    *                                * * *    *   * * 

E--------------------------------------------------------------------------------------------
B--------------------------------------------------------------------------------------------
G--------------------------------------------------------------------------------------------
D--0-0-0-0-------0----------0-0--8-8-8-8-8-8-8-8--3-3-3-3-3-3-3-3-8-8-8-8-8-8-8-8--2--0--12--
A--0-0-0-0-------0----------0-0--8-8-8-8-8-8-8-8--3-3-3-3-3-3-3-3-8-8-8-8-8-8-8-8--2--0--12--
D--0-0-0-0-------0----------0-0--8-8-8-8-8-8-8-8--3-3-3-3-3-3-3-3-8-8-8-8-8-8-8-8--2--0--12--
   * * * *       *          

Guitar 1 1:24 - 1:42
E----------------------------------------------------------------------
B--15------15h18p15--15------15h18p15--15--18-17-16-15-14-13-12-11-----
G------14----------------14----------------------------------------14--
D----------------------------------------------------------------------
A----------------------------------------------------------------------
D----------------------------------------------------------------------

E------------------------------------------------------------------------
B--15------15h18p15--15------15h18p15--15--18--15------------------------
G------14----------------14------------------------14------12h13h14--14--
D------------------------------------------------------15----------------
A------------------------------------------------------------------------
D------------------------------------------------------------------------

E------------------------------------------17---------------------------
B----------------------------------------------18--15--17---------------
G--14------14h15p14--14------14h15p14--14----------------------12-------
D------15----------------15--------------------------------11------14---
A-----------------------------------------------------------------------
D-----------------------------------------------------------------------

E--13-----------------------------------------------____--------------
B------14----------14---------------------____-----/    \---15--------
G----------15----------15----------------/    \---11h12h14------------
D--------------15----------15-------12--11h12h14----------------12\----
A------------------------------16-------------------------------12\----
D---------------------------------------------------------------12\----

Guitar 2 1:24 - 1:42
E-------------------------------------------------------------------------------------------------
B-------------------------------------------------------------------------------------------------
G-------------------------------------------6-----------------------------------------------------
D--0------/7------0------/7-------0---------X-----3-----7-------0------/7------0------/7------0---
A--0------/7------0------/7-------0---------4-----3-----7-------0------/7------0------/7------0---
D--0------/7------0------/7-------0---------------3-----7-------0------/7------0------/7------0---

E-------------------------------------------------------------------------------------------------
B-------------------------------------------------------------------------------------------------
G------------------------------------------------------------6------------------------------------
D--0---------6------0-------/7-------0-------/7-------0------X-----3------7------8-----3-----2----
A--0---------6------0-------/7-------0-------/7-------0------4-----3------7------8-----3-----2----
D--0---------6------0-------/7-------0-------/7-------0------------3------7------8-----3-----2----

E--------------------
B--------------------
G--------------------
D--3--2--0---12\-----
A--3--2--0---12\-----
D--3--2--0---12\-----

Guitar 1 & 2 1:42 - 1:57
E-----------------------------------------------------------------------------------------
B-----------------------------------------------------------------------------------------
G--------------16h17p16------14----------------------------------13-13-13-13--------------
D--0-0--0--0-------------0--------0-0-0---15---0-0-0--0--0-0-0----------------12----/15---
A--0-0--0--0-------------0--------0-0-0--------0-0-0--0--0-0-0----------------------------
D--0-0--0--0-------------0--------0-0-0--------0-0-0--0--0-0-0----------------------------
   * *  *  *             *        * * *        * * *     * * *

E---------------------------------------------------------------------------------------
B---------------------------------------------------------------------------------------
G--------------------16h17p16------14------------------------------14--13---------------
D--0-0-0--0--0-0-0-------------0--------0-0-0---15---0-0-0--0--0-----------(14)---7\----
A--0-0-0--0--0-0-0-------------0--------0-0-0--------0-0-0--0--0------------------7\----
D--0-0-0--0--0-0-0-------------0--------0-0-0--------0-0-0--0--0------------------7\----
   * * *     * * *             *        * * *        * * *     *

E-----------------------------------------------------------------------------------
B-----------------------------------------------------------------------------------
G--------------16h17p16-------14---------------------------------------15-----------
D--0-0--0--0--------------0--------0-0-0---15---0-0-0--0--0---14h15h17--------------
A--0-0--0--0--------------0--------0-0-0--------0-0-0--0--0----------------17--16---
D--0-0--0--0--------------0--------0-0-0--------0-0-0--0--0-------------------------
   * *     *              *        * * *        * * *     *

Guitar 1 1:58 - 2:01
E---------------------------------------------------------------
B-----------------------------------------------------13-15-----
G-------------------------------------------12-14-15------------
D--12--15---12--12h14p12---11-----12h13h15----------------------
A---------------------------------------------------------------
D---------------------------------------------------------------

Guitar 2 1:58 - 2:01
E--------------------------------------------------------------
B--------------------------------------------------------------
G--------------------------------------------------------------
D--8-8-8-8-8-8-8-8--3-3-3-3-3-3-3-3--8-8-8-8-8-8--2--0--12/----
A--8-8-8-8-8-8-8-8--3-3-3-3-3-3-3-3--8-8-8-8-8-8--2--0--12/----
D--8-8-8-8-8-8-8-8--3-3-3-3-3-3-3-3--8-8-8-8-8-8--2--0--12/----

Guitar 1 2:02 - 2:41
E--------------------10--------------10-------------------------------
B--10---7---10---7--------10-----12------8----7--10------7------------
G----------------------------------------------------7-----------9----
D---------------------------------------------------------------------
A---------------------------------------------------------------------
D---------------------------------------------------------------------

E--------------------10-----------------------------------------------
B--10---7---10---7--------10----------12----10---------8----7---------
G--------------------------------9----------------7--------------9----
D---------------------------------------------------------------------
A---------------------------------------------------------------------
D---------------------------------------------------------------------
                           Play this sequence twice (x2)

Guitar 2 2:02
E--------------------------------------------------------------------------
B--------------------------------------------------------------------------
G--------------------------------------------------------------------------
D--0-----------0----0----------0----5-------------0-----------0-0-0-0------
A--0-----------0----0----------0----5-------------0-----------0-0-0-0------
D--0-----------0----0----------0----5-------------0-----------0-0-0-0------
               *               *                              * * * *

E-------------------------------------------
B-------------------------------------------
G-------------------------------------------
D--5---------4--------4----------7----------
A--5---------5--------5----------7----------
D--5---------4--------4----------7----------

E-------------------------------------------------------------------------------------
B-------------------------------------------------------------------------------------
G--7--------6--------4----------------------------------------------------------------
D----------------------------7----------5----------4----------5-----------7-----------
A-------------------------------------------------------------------------------------
D-------------------------------------------------------------------------------------
                                Tremelo each of these notes 8 times

E-----------                         -----------------------------------------------------
B-----------                         -----------------------------------------------------
G-----------                         -----------------------------------------------------
D--0--------  Strum this 16 times    --5--------0--------5-------4--------4--------7------
A--0--------          (x16)          --5--------0--------5-------5--------5--------7------
D--0---------                        --5--------0--------5-------4--------4--------7------
                                                 Strum these chords 8 times each (x8)
                             Play this whole bar 2 times (x2)

Guitar 1 2:42 - 3:01
E------------------------------13-----------------------13-----------------------------------------
B--13-----10-----13-----10-------------13---------15----------11----10----13----------10-----------
G-------------------------------------------------------------------------------10----------12-----
D--------------------------------------------------------------------------------------------------
A--------------------------------------------------------------------------------------------------
D--------------------------------------------------------------------------------------------------

E------------------------------13------------------------------------------------------------------
B--13-----10-----13-----10------------13----------------15-----13------------11-----10-------------
G------------------------------------------------12-------------------10-------------------12------
D--------------------------------------------------------------------------------------------------
A--------------------------------------------------------------------------------------------------
D--------------------------------------------------------------------------------------------------

Guitar 2 2:42 - 3:01
E-------------------------------------------------------------------------------------------------
B-------------------------------------------------------------------------------------------------
G-------------------------------------------------------------------------------------------------
D--------3-----5p3-----3-----3h5p3-----7-----3----8--8-------------------------------10-----------
A----------------------------------------------------------12-----10-----8--8h10h12------8h10h12--
D--3--3-----3-------3-----3---------3-----3-------------8------8------8---------------------------
   *  *     *       *     *         *     *             *      *      *

E-------------------------------------------------------------------------------------------------
B-------------------------------------------------------------------------------------------------
G------------------------------------10-----------------------------------------------------------
D--8--8-----10-----8--------7--7---------10-------------10--7------7---------10--10--12--10--12/14
A--------------------------------------------------10p8---------10--------------------------------
D--------8------8-----7--7--------7----------7--7----------------------10--10---------------------
         *      *     *  *        *          *  *                      *   *
                                        Repeat this part twice (x2)

Guitar 1 3:01 - 3:11
E---------------------------------------------------------------------------------
B------------------------------------------------------------------18-------------
G--14------15----------16------19--17-------/18------21--19------------19--21\----
D------15------17----------17--------------------19-------------------------------
A---------------------------------------------------------------------------------
D---------------------------------------------------------------------------------

Guitar 2 3:01 - 3:11
E---------------------------------------------------------------------------------
B---------------------------------------------------------------------------------
G------10--------------------12--------------------14---------------------12------
D--10------12------------12------14------------14------15-------------12------14\-
A--------------13--------------------15--------------------17---------------------
D---------------------------------------------------------------------------------
                   Tremelo each note (roughly around 8 times (x8))

Guitar 1 3:12 - End
E--------------------10--------------10-------------------------------
B--10---7---10---7--------10-----12------8----7--10------7------------
G----------------------------------------------------7-----------9----
D---------------------------------------------------------------------
A---------------------------------------------------------------------
D---------------------------------------------------------------------

E------------------------------------------10-10-10-10-10-10-10-10----------------9--------------
B--10-10-10-10-7-7-7-7-10-10-10-10-7-7-7-7-------------------------------------------12------12--
G--------------------------------------------------------------------------9--11---------11------
D-------------------------------------------------------------------9--12------------------------
A------------------------------------------------------------------------------------------------
D------------------------------------------------------------------------------------------------

E-------------------------------------------------------------------------------------------------
B--------12--14--15---------------12--14--15------(15)------12--14--15------------12--12--14--15~-
G--12----------------14--11-------------------14------------------------14--11--------------------
D-------------------------------------------------------------------------------------------------
A-------------------------------------------------------------------------------------------------
D-------------------------------------------------------------------------------------------------

Guitar 2 3:12 - End
E-----------                         -----------------------------------------------------
B-----------                         -----------------------------------------------------
G-----------                         -----------------------------------------------------
D--0--------  Strum this 16 times    --5--------0--------5-------4--------4--------7------
A--0--------          (x16)          --5--------0--------5-------5--------5--------7------
D--0---------                        --5--------0--------5-------4--------4--------7------
                                                 Strum these chords 8 times each (x8)
Repeat open bar again but PM (palm muted)
and go into:

E-------------------------------------------------------------------------------------------------
B-------------------------------------------------------------------------------------------------
G-------------------------------------------------------------------------------------------------
D--5-5-5-5-5-5-5-5--0-0-0-0-0-0-0-0---------------5--5--------------------0--0--------------------
A--5-5-5-5-5-5-5-5--0-0-0-0-0-0-0-0---------5--5--------5--5--------0--0--------0--0--------5--5--
D--5-5-5-5-5-5-5-5--0-0-0-0-0-0-0-0---5--5--------------------0--0--------------------5--5--------
   * * * * * * * *  * * * * * * * *   *  *                    *  *                    *  *

E--------------------------------------------------------------------------------------------
B--------------------------------------------------------------------------------------------
G--------------------------------------------------------------------------------------------
D--5--5--------------------0--0--------5---5---5---5---0---0---0---0------7---------12-------
A--------5--5--------0--0--------0--0--5---5---5---5---0---0---0---0------7---------12-------
D--------------0--0--------------------5---5---5---5---0---0---0---0------7---------12-------
Добавлено: 01.04.2016
Другие материалы по этой песне:
  • Аккорды и текст

Страница создана 01.04.2016
http://primanota.ru/august-burns-red/home-alone-theme-chords.htm
Привет, Гость.
Предлагаем пройти революционный курс по гитаре.
Подарок от PrimaNota.Ru, забирай!