PrimaNota.ru - самый крупный в мире бесплатный архив песенных текстов, аккордов, табулатур и нот


Annihilator - Striker - текст песни, таба, видео

Регистрация Запомнить меня
Войти через:  Facebook Google Twitter Vk Yandex Mail.ru

Annihilator - Striker - текст песни, таба, видео

Печатать
Просмотров: 187
Annihilator - Striker

tabbed by
ol753_357lo@yahoo.co.uk

Tuning - E A D G B E


Gtr 1
  PM----------|    PM--------------------------------------|
|----------------------------------------------------------|
|----------------------------------------------------------|
|----------------------------------------------------------|
|---------------2-----------------------------------4------|
|---------------0-----------------------------------2------|
|-0--2-2--2-2-2----2-2--2-2-2-0--2-2--2-2-2-5-4-2-0--------|


Both Gtrs
  PM----------|    PM--------------------------------------|
|----------------------------------------------------------|
|----------------------------------------------------------|
|----------------------------------------------------------|
|---------------2------------------------------------------|
|---------------0-----------------------------------5------|
|-0--2-2--2-2-2----2-2--2-2-2-0--2-2--2-2-2-5-4-2-0-3------|


Both Gtrs
play twice
  PM----------|    PM--------------------------------------|
|----------------------------------------------------------|
|----------------------------------------------------------|
|----------------------------------------------------------|
|---------------2-----------------------------------4------|
|---------------0-----------------------------------2------|
|-0--2-2--2-2-2----2-2--2-2-2-0--2-2--2-2-2-5-4-2-0--------|


  PM----------|    PM--------------------------------------|
|----------------------------------------------------------|
|----------------------------------------------------------|
|----------------------------------------------------------|
|---------------2------------------------------------------|
|---------------0-----------------------------------5------|
|-0--2-2--2-2-2----2-2--2-2-2-0--2-2--2-2-2-5-4-2-0-3------|


Gtr 3
|-----------------------------------------------------------------------------------|
|-----------------------10p9--------------------------------------------------------|
|-9h11--11-11--11-9h11------11-9-11---9h11--11-11--11-9h11-11p9---------------------|
|---------------------------------------------------------------12-11-10------------|
|------------------------------------------------------------------------12-11-10---|
|-----------------------------------------------------------------------------------|


|------------------------------------------12--------9-10-------------|
|----------------------10p9-----------9-10----10-9-7--------9-10------|
|-9h11--11-11--11-9h11------11-9-11-----------------------7------6----|
|---------------------------------------------------------------------|
|---------------------------------------------------------------------|
|---------------------------------------------------------------------|


Gtr 3
|-----------------------------------------------------------------------------------|
|-----------------------10p9--------------------------------------------------------|
|-9h11--11-11--11-9h11------11-9-11---9h11--11-11--11-9h11-11p9---------------------|
|---------------------------------------------------------------12-11-10------------|
|------------------------------------------------------------------------12-11-10---|
|-----------------------------------------------------------------------------------|

|---------------------------------------------14--------14-------14-------14-------14-------14-------14-14-----|
|----------------------10p9------------17b19-----17b19-----17b19----17b19----17b19----17b19----17b19----17b19--|
|-9h11--11-11--11-9h11------11-9-11----------------------------------------------------------------------------|
|--------------------------------------------------------------------------------------------------------------|
|--------------------------------------------------------------------------------------------------------------|
|--------------------------------------------------------------------------------------------------------------|


Gtr 4
|-----------------------------------------------------------------------------------------|
|-----------------------14p12-------------------------------------------------------------|
|-13h14-14-14--14-13h14-------14-13-14---13h14-14-14--14-13h14-14p13----------------------|
|--------------------------------------------------------------------16-14-12-------------|
|-----------------------------------------------------------------------------16-14-12----|
|-----------------------------------------------------------------------------------------|


|-----------------------------------------------17--------17-------17-------17-------17-------17-------17-17-------|
|-----------------------14p12------------21b22-----21b22-----21b22----21b22----21b22----21b22----21b22----21b22----|
|-13h14-14-14--14-13h14-------14-13-14-----------------------------------------------------------------------------|
|------------------------------------------------------------------------------------------------------------------|
|------------------------------------------------------------------------------------------------------------------|
|------------------------------------------------------------------------------------------------------------------|


Verse
Both Gtrs
play twice
  PM----------|    PM--------------------------------------|
|----------------------------------------------------------|
|----------------------------------------------------------|
|----------------------------------------------------------|
|---------------2-----------------------------------4------|
|---------------0-----------------------------------2------|
|-0--2-2--2-2-2----2-2--2-2-2-0--2-2--2-2-2-5-4-2-0--------|


  PM----------|    PM--------------------------------------|
|----------------------------------------------------------|
|----------------------------------------------------------|
|----------------------------------------------------------|
|---------------2------------------------------------------|
|---------------0-----------------------------------5------|
|-0--2-2--2-2-2----2-2--2-2-2-0--2-2--2-2-2-5-4-2-0-3------|


Both Gtrs
play 4 times
  PM-------------------------------------------------------------------|
|----------------------------------------------------------------------|
|----------------------------------------------------------------------|
|----------------------------------------------------------------------|
|----------------------------------------------------------------------|
|-2-2-2-2-2-2-2-2-2-2-2-2-2-2-2-2-2-2-2-2-2-2-2-2-2-2-2-2-2-2-2-2------|
|----------------------------------------------------------------------|


  PM---------------------------------------------------|
|------------------------------------------------------|
|------------------------------------------------------|
|---------------------------------2--4--2--4--2-4------|
|---------------------------------0--2--0--2--0-2------|
|-0-0-0-0-0-0-0-0-0-0-0-0-0-0-0-0-0--2--0--2--0-2------|
|------------------------------------------------------|


Both Gtrs
play twice
  PM----------|    PM--------------------------------------|
|----------------------------------------------------------|
|----------------------------------------------------------|
|----------------------------------------------------------|
|---------------2-----------------------------------4------|
|---------------0-----------------------------------2------|
|-0--2-2--2-2-2----2-2--2-2-2-0--2-2--2-2-2-5-4-2-0--------|


  PM----------|    PM--------------------------------------|
|----------------------------------------------------------|
|----------------------------------------------------------|
|----------------------------------------------------------|
|---------------2------------------------------------------|
|---------------0-----------------------------------5------|
|-0--2-2--2-2-2----2-2--2-2-2-0--2-2--2-2-2-5-4-2-0-3------|


Gtr 3
|-----------------------------------------------------------------------------------|
|-----------------------10p9--------------------------------------------------------|
|-9h11--11-11--11-9h11------11-9-11---9h11--11-11--11-9h11-11p9---------------------|
|---------------------------------------------------------------12-11-10------------|
|------------------------------------------------------------------------12-11-10---|
|-----------------------------------------------------------------------------------|


|------------------------------------------12--------9-10-------------|
|----------------------10p9-----------9-10----10-9-7--------9-10------|
|-9h11--11-11--11-9h11------11-9-11-----------------------7------6----|
|---------------------------------------------------------------------|
|---------------------------------------------------------------------|
|---------------------------------------------------------------------|


Gtr 3
|-----------------------------------------------------------------------------------|
|-----------------------10p9--------------------------------------------------------|
|-9h11--11-11--11-9h11------11-9-11---9h11--11-11--11-9h11-11p9---------------------|
|---------------------------------------------------------------12-11-10------------|
|------------------------------------------------------------------------12-11-10---|
|-----------------------------------------------------------------------------------|

|---------------------------------------------14--------14-------14-------14-------14-------14-------14-14-----|
|----------------------10p9------------17b19-----17b19-----17b19----17b19----17b19----17b19----17b19----17b19--|
|-9h11--11-11--11-9h11------11-9-11----------------------------------------------------------------------------|
|--------------------------------------------------------------------------------------------------------------|
|--------------------------------------------------------------------------------------------------------------|
|--------------------------------------------------------------------------------------------------------------|


Gtr 4
|-----------------------------------------------------------------------------------------|
|-----------------------14p12-------------------------------------------------------------|
|-13h14-14-14--14-13h14-------14-13-14---13h14-14-14--14-13h14-14p13----------------------|
|--------------------------------------------------------------------16-14-12-------------|
|-----------------------------------------------------------------------------16-14-12----|
|-----------------------------------------------------------------------------------------|


|-----------------------------------------------17--------17-------17-------17-------17-------17-------17-17-------|
|-----------------------14p12------------21b22-----21b22-----21b22----21b22----21b22----21b22----21b22----21b22----|
|-13h14-14-14--14-13h14-------14-13-14-----------------------------------------------------------------------------|
|------------------------------------------------------------------------------------------------------------------|
|------------------------------------------------------------------------------------------------------------------|
|------------------------------------------------------------------------------------------------------------------|


Repeat Verse


Both Gtrs
play 4 times
  PM-------------------------------------------------------------------|
|----------------------------------------------------------------------|
|----------------------------------------------------------------------|
|----------------------------------------------------------------------|
|----------------------------------------------------------------------|
|-2-2-2-2-2-2-2-2-2-2-2-2-2-2-2-2-2-2-2-2-2-2-2-2-2-2-2-2-2-2-2-2------|
|----------------------------------------------------------------------|


  PM---------------------------------------------------|
|------------------------------------------------------|
|------------------------------------------------------|
|---------------------------------2--4--2--4--2-4------|
|---------------------------------0--2--0--2--0-2------|
|-0-0-0-0-0-0-0-0-0-0-0-0-0-0-0-0-0--2--0--2--0-2------|
|------------------------------------------------------|


Both Gtrs
play twice
  PM----------|    PM--------------------------------------|
|----------------------------------------------------------|
|----------------------------------------------------------|
|----------------------------------------------------------|
|---------------2-----------------------------------4------|
|---------------0-----------------------------------2------|
|-0--2-2--2-2-2----2-2--2-2-2-0--2-2--2-2-2-5-4-2-0--------|


  PM----------|    PM--------------------------------------|
|----------------------------------------------------------|
|----------------------------------------------------------|
|----------------------------------------------------------|
|---------------2------------------------------------------|
|---------------0-----------------------------------5------|
|-0--2-2--2-2-2----2-2--2-2-2-0--2-2--2-2-2-5-4-2-0-3------|


Gtr 3
|-----------------------------------------------------------------------------------|
|-----------------------10p9--------------------------------------------------------|
|-9h11--11-11--11-9h11------11-9-11---9h11--11-11--11-9h11-11p9---------------------|
|---------------------------------------------------------------12-11-10------------|
|------------------------------------------------------------------------12-11-10---|
|-----------------------------------------------------------------------------------|


|------------------------------------------12--------9-10-------------|
|----------------------10p9-----------9-10----10-9-7--------9-10------|
|-9h11--11-11--11-9h11------11-9-11-----------------------7------6----|
|---------------------------------------------------------------------|
|---------------------------------------------------------------------|
|---------------------------------------------------------------------|


Gtr 3
|-----------------------------------------------------------------------------------|
|-----------------------10p9--------------------------------------------------------|
|-9h11--11-11--11-9h11------11-9-11---9h11--11-11--11-9h11-11p9---------------------|
|---------------------------------------------------------------12-11-10------------|
|------------------------------------------------------------------------12-11-10---|
|-----------------------------------------------------------------------------------|

|---------------------------------------------14--------14-------14-------14-------14-------14-------14-14-----|
|----------------------10p9------------17b19-----17b19-----17b19----17b19----17b19----17b19----17b19----17b19--|
|-9h11--11-11--11-9h11------11-9-11----------------------------------------------------------------------------|
|--------------------------------------------------------------------------------------------------------------|
|--------------------------------------------------------------------------------------------------------------|
|--------------------------------------------------------------------------------------------------------------|


Gtr 4
|-----------------------------------------------------------------------------------------|
|-----------------------14p12-------------------------------------------------------------|
|-13h14-14-14--14-13h14-------14-13-14---13h14-14-14--14-13h14-14p13----------------------|
|--------------------------------------------------------------------16-14-12-------------|
|-----------------------------------------------------------------------------16-14-12----|
|-----------------------------------------------------------------------------------------|


|-----------------------------------------------17--------17-------17-------17-------17-------17-------17-17-------|
|-----------------------14p12------------21b22-----21b22-----21b22----21b22----21b22----21b22----21b22----21b22----|
|-13h14-14-14--14-13h14-------14-13-14-----------------------------------------------------------------------------|
|------------------------------------------------------------------------------------------------------------------|
|------------------------------------------------------------------------------------------------------------------|
|------------------------------------------------------------------------------------------------------------------|


Gtr 1
play 4 times
  PM|     PM----|     PM---------------|
|--------------------------------------|
|--------------------------------------|
|--------------------------------------|
|--------------------------------------|
|--------------------------------------|
|-*-*-2p0-0-0-2-2-2p0-0-0-*-*-*-*------|


Both Gtrs
play twice
  PM-----------------------------------|
|--------------------------------------|
|--------------------------------------|
|--------------------------------------|
|--------------------------------------|
|--------------------------------------|
|-0-0-6-0-0-6-0-0-6-0-0-6-0-0-6-0------|


  PM---------------------------------|
|------------------------------------|
|------------------------------------|
|------------------------------------|
|------------------------------------|
|------------------------------------|
|-0-0-6-0-0-6-0-0-6-0-0-6-0-0-6------|


Gtr 3
play twice
|----------------------------------------------------|
|----------------------------------------------------|
|-------15-------15-------15-------15-------15-------|
|-14-14----14-14----14-14----14-14----14-14----14----|
|----------------------------------------------------|
|----------------------------------------------------|


|------------------------------------------------|
|------------------------------------------------|
|-------15-------15-------15-------15-------15---|
|-14-14----14-14----14-14----14-14----14-14------|
|------------------------------------------------|
|------------------------------------------------|


Gtr 4
play twice
|----------------------------------------------------|
|----------------------------------------------------|
|-------19-------19-------19-------19-------19-------|
|-18-18----18-18----18-18----18-18----18-18----18----|
|----------------------------------------------------|
|----------------------------------------------------|


|------------------------------------------------|
|------------------------------------------------|
|-------19-------19-------19-------19-------19---|
|-18-18----18-18----18-18----18-18----18-18------|
|------------------------------------------------|
|------------------------------------------------|


Gtr 1
play 4 times
  PM|     PM----|     PM---------------|
|--------------------------------------|
|--------------------------------------|
|--------------------------------------|
|--------------------------------------|
|--------------------------------------|
|-*-*-2p0-0-0-2-2-2p0-0-0-*-*-*-*------|


Both Gtrs
play twice
  PM-----------------------------------|
|--------------------------------------|
|--------------------------------------|
|--------------------------------------|
|--------------------------------------|
|--------------------------------------|
|-0-0-6-0-0-6-0-0-6-0-0-6-0-0-6-0------|


  PM---------------------------------|
|------------------------------------|
|------------------------------------|
|------------------------------------|
|------------------------------------|
|------------------------------------|
|-0-0-6-0-0-6-0-0-6-0-0-6-0-0-6------|


Gtr 3
play twice
|----------------------------------------------------|
|----------------------------------------------------|
|-------15-------15-------15-------15-------15-------|
|-14-14----14-14----14-14----14-14----14-14----14----|
|----------------------------------------------------|
|----------------------------------------------------|


|------------------------------------------------|
|------------------------------------------------|
|-------15-------15-------15-------15-------15---|
|-14-14----14-14----14-14----14-14----14-14------|
|------------------------------------------------|
|------------------------------------------------|


Gtr 4
play twice
|----------------------------------------------------|
|----------------------------------------------------|
|-------19-------19-------19-------19-------19-------|
|-18-18----18-18----18-18----18-18----18-18----18----|
|----------------------------------------------------|
|----------------------------------------------------|


|------------------------------------------------|
|------------------------------------------------|
|-------19-------19-------19-------19-------19---|
|-18-18----18-18----18-18----18-18----18-18------|
|------------------------------------------------|
|------------------------------------------------|


(Bass solo, Drum solo)


Gtr 1
  PM----------|    PM--------------------------------------|
|----------------------------------------------------------|
|----------------------------------------------------------|
|----------------------------------------------------------|
|---------------2-----------------------------------4------|
|---------------0-----------------------------------2------|
|-0--2-2--2-2-2----2-2--2-2-2-0--2-2--2-2-2-5-4-2-0--------|


Both Gtrs
  PM----------|    PM--------------------------------------|
|----------------------------------------------------------|
|----------------------------------------------------------|
|----------------------------------------------------------|
|---------------2------------------------------------------|
|---------------0-----------------------------------5------|
|-0--2-2--2-2-2----2-2--2-2-2-0--2-2--2-2-2-5-4-2-0-3------|


Both Gtrs
play twice, Gtrs 3&4 (to be added)
  PM----------|    PM--------------------------------------|
|----------------------------------------------------------|
|----------------------------------------------------------|
|----------------------------------------------------------|
|---------------2-----------------------------------4------|
|---------------0-----------------------------------2------|
|-0--2-2--2-2-2----2-2--2-2-2-0--2-2--2-2-2-5-4-2-0--------|


  PM----------|    PM--------------------------------------|
|----------------------------------------------------------|
|----------------------------------------------------------|
|----------------------------------------------------------|
|---------------2------------------------------------------|
|---------------0-----------------------------------5------|
|-0--2-2--2-2-2----2-2--2-2-2-0--2-2--2-2-2-5-4-2-0-3------|


Repeat Verse


Both Gtrs
play 4 times
  PM-------------------------------------------------------------------|
|----------------------------------------------------------------------|
|----------------------------------------------------------------------|
|----------------------------------------------------------------------|
|----------------------------------------------------------------------|
|-2-2-2-2-2-2-2-2-2-2-2-2-2-2-2-2-2-2-2-2-2-2-2-2-2-2-2-2-2-2-2-2------|
|----------------------------------------------------------------------|


  PM---------------------------------------------------|
|------------------------------------------------------|
|------------------------------------------------------|
|---------------------------------2--4--2--4--2-4------|
|---------------------------------0--2--0--2--0-2------|
|-0-0-0-0-0-0-0-0-0-0-0-0-0-0-0-0-0--2--0--2--0-2------|
|------------------------------------------------------|


Both Gtrs
play twice
  PM----------|    PM--------------------------------------|
|----------------------------------------------------------|
|----------------------------------------------------------|
|----------------------------------------------------------|
|---------------2-----------------------------------4------|
|---------------0-----------------------------------2------|
|-0--2-2--2-2-2----2-2--2-2-2-0--2-2--2-2-2-5-4-2-0--------|


  PM----------|    PM--------------------------------------|
|----------------------------------------------------------|
|----------------------------------------------------------|
|----------------------------------------------------------|
|---------------2------------------------------------------|
|---------------0-----------------------------------5------|
|-0--2-2--2-2-2----2-2--2-2-2-0--2-2--2-2-2-5-4-2-0-3------|


Gtr 3
|-----------------------------------------------------------------------------------|
|-----------------------10p9--------------------------------------------------------|
|-9h11--11-11--11-9h11------11-9-11---9h11--11-11--11-9h11-11p9---------------------|
|---------------------------------------------------------------12-11-10------------|
|------------------------------------------------------------------------12-11-10---|
|-----------------------------------------------------------------------------------|


|------------------------------------------12--------9-10-------------|
|----------------------10p9-----------9-10----10-9-7--------9-10------|
|-9h11--11-11--11-9h11------11-9-11-----------------------7------6----|
|---------------------------------------------------------------------|
|---------------------------------------------------------------------|
|---------------------------------------------------------------------|


|-----------------------------------------------------------------------------------|
|-----------------------10p9--------------------------------------------------------|
|-9h11--11-11--11-9h11------11-9-11---9h11--11-11--11-9h11-11p9---------------------|
|---------------------------------------------------------------12-11-10------------|
|------------------------------------------------------------------------12-11-10---|
|-----------------------------------------------------------------------------------|


|---------------------------------------------14--------14-------14-------14-------14-------14-------14-14-----|
|----------------------10p9------------17b19-----17b19-----17b19----17b19----17b19----17b19----17b19----17b19--|
|-9h11--11-11--11-9h11------11-9-11----------------------------------------------------------------------------|
|--------------------------------------------------------------------------------------------------------------|
|--------------------------------------------------------------------------------------------------------------|
|--------------------------------------------------------------------------------------------------------------|


Gtr 4
|-----------------------------------------------------------------------------------------|
|-----------------------14p12-------------------------------------------------------------|
|-13h14-14-14--14-13h14-------14-13-14---13h14-14-14--14-13h14-14p13----------------------|
|--------------------------------------------------------------------16-14-12-------------|
|-----------------------------------------------------------------------------16-14-12----|
|-----------------------------------------------------------------------------------------|


|----------------------------------------------15----------12-13---------------|
|-----------------------14p12------------12-13----13-12-10----------12-13------|
|-13h14-14-14--14-14-14-------14-13-14---------------------------10-------9----|
|------------------------------------------------------------------------------|
|------------------------------------------------------------------------------|
|------------------------------------------------------------------------------|


|-----------------------------------------------------------------------------------------|
|-----------------------14p12-------------------------------------------------------------|
|-13h14-14-14--14-13h14-------14-13-14---13h14-14-14--14-13h14-14p13----------------------|
|--------------------------------------------------------------------16-14-12-------------|
|-----------------------------------------------------------------------------16-14-12----|
|-----------------------------------------------------------------------------------------|


|-----------------------------------------------17--------17-------17-------17-------17-------17-------17-17-------|
|-----------------------14p12------------21b22-----21b22-----21b22----21b22----21b22----21b22----21b22----21b22----|
|-13h14-14-14--14-13h14-------14-13-14-----------------------------------------------------------------------------|
|------------------------------------------------------------------------------------------------------------------|
|------------------------------------------------------------------------------------------------------------------|
|------------------------------------------------------------------------------------------------------------------|


Both Gtrs
  PM----------|    PM--------------------------------------|
|----------------------------------------------------------|
|----------------------------------------------------------|
|----------------------------------------------------------|
|---------------2-----------------------------------4------|
|---------------0-----------------------------------2------|
|-0--2-2--2-2-2----2-2--2-2-2-0--2-2--2-2-2-5-4-2-0--------|


  PM----------|    PM--------------------------------------|
|----------------------------------------------------------|
|----------------------------------------------------------|
|----------------------------------------------------------|
|---------------2------------------------------------------|
|---------------0-----------------------------------5------|
|-0--2-2--2-2-2----2-2--2-2-2-0--2-2--2-2-2-5-4-2-0-3------|


Tablature Legend
----------------
 h   - hammer-on
 p   - pull-off
 b   - bend
 pb  - pre-bend
 r   - bend release (if no number after the r, then release immediately)
 /\  - slide into or out of (from/to "nowhere")
 s   - legato slide
 S   - shift slide
  - natural harmonic
[n]  - artificial harmonic
n(n) - tapped harmonic
 ~   - vibrato
 tr  - trill
 T   - tap
 TP  - trem. picking
 PM  - palm muting
\n/  - tremolo bar dip; n = amount to dip
 \n  - tremolo bar down
 n/  - tremolo bar up
/n\  - tremolo bar inverted dip
 =   - hold bend; also acts as connecting device for hammers/pulls
 <>  - volume swell (louder/softer)
 x   - on rhythm slash represents muted slash
 o   - on rhythm slash represents single note slash

Misc Legend
-----------
 |  - bar
||  - double bar
||o - repeat start
o|| - repeat end
*|  - double bar (ending)
 :  - bar (freetime)
 $  - Segno
 &  - Coda
Tempo markers -  = BPM(8/16=s8/s16), where s8 = swing 8ths, s16 = swing 16ths
Добавлено: 20.03.2012
Другие материалы по этой песне:
  • Аккорды и текст

Страница создана 20.03.2012
http://primanota.ru/annihilator/striker-chords.htm
Привет, Гость.
Предлагаем пройти революционный курс по гитаре.
Подарок от PrimaNota.Ru, забирай!