PrimaNota.ru - самый крупный в мире бесплатный архив песенных текстов, аккордов, табулатур и нот


Annihilator - Alison hell - аккорды и текст, таба, бас-таба, видео

Регистрация Запомнить меня
Войти через:  Facebook Google Twitter Vk Yandex Mail.ru

Annihilator - Alison hell - аккорды и текст, таба, бас-таба, видео

Печатать
Просмотров: 447
Авторы музыки: Jeff Waters
Авторы текста: Big John Bates, Jeff Waters
Alison hell
Annihilator
Never thought I'd see a request for Annihilator on the tab group, it's good
to see because they are my favourite band and Jeff Waters is my favourite
guitarist. It's not all here, and it's done from memory, so don't expect it
to be perfect...

ANNIHILATOR - Alison Hell(Incomplete)


The intro goes:

(clean electric)

let the notes ring out
-----------------------------
-----------------------------  
----------------------------- 
-2-------2----------1-------1
---0--0---------------0--0---
-----------------------------


then the rhythm guitar comes in:

-----------------------------
--------------------8--------
--7-----------------8--------
--7-----------------6--------
--5--------------------------


the clean picking gets busier when the rhythm comes in

------------------------------------------------------------------
------------------------------------------------------------------
------------------------------------------------------------------ 
-2--------2-------2-------2-------1-------1-------1-------1-------
----0--0----0--0----0--0----0--0----0--0----0--0----0--0----0--0--
------------------------------------------------------------------


there's a harmonic here but I can't remember where it's played


the cool riff (I think so anyway!)

both guitars:

---------------------------------------------------------------
---------------------------------------------------------------
---------------------------------------------------------------
-----------p.h------------------p.h------------------p.h-------
------------7--------------------7--------------------6--------
---5--7--8-----8--7-----5--7--8-----8--7-----5--7--8-----8--7-- continued


---------------------------------------------------------------
---------------------------------------------------------------
---------------------------------------------------------------
------------p.h------------------p.h-------------------p.h-------
------------6--------------------7--------------------7--------
---5--7--8-----8--7-----5--7--8-----8--7-----5--7--8-----8--7-- continued


------------------------------------------
------------------------------------------
------------------------------------------
-----------p.h-------------------p.h-------
------------6--------------------6--------
---5--7--8-----8--7-----5--7--8-----8--7--


guitar 1

-----------------------------------------------------------------
-----------------------------------------------------------------
-----------------------------------------------------------------  
------------9---------------------9---------------------8--------
---7--9--10---10--9-----7--9--10-----9--10-----7--9--10---10--9--
----------------------------------------------------------------- continued
   E                                           Eb
guitar 2 (power chords, E at 7th fret, Eb at 6th fret, let ring)



guitar 1

-----------------------------------------------------------------
-----------------------------------------------------------------
-----------------------------------------------------------------
------------8--------------------9--------------------9----------
---7--9--10---10--9-----7--9--10---10--9-----7--9--10---10--9----
----------------------------------------------------------------- continued
                        E


-----------------------------------------------------------------
-----------------------------------------------------------------
-----------------------------------------------------------------
------------8--------8-8-8-8~~-----------------------------------
---7--9--10---10--9----------------------------------------------
----------------------------------------------------------------- 
   Eb


now both guitars:

-----------------------------------------------------------------
-----------------------------------------------------------------
-----------------------------------------------------------------  
------------9---------------------9---------------------8--------
---7--9--10---10--9-----7--9--10-----9--10-----7--9--10---10--9--
----------------------------------------------------------------- continued

-----------------------------------------------------------------
-----------------------------------------------------------------
-----------------------------------------------------------------
------------8--------------------8--------------------8----------
---7--9--10---10--9-----6--8--9-----9--8-----6--8--9-----9--8----
----------------------------------------------------------------- continued

  
-----------------------------------------------------------------
-----------------------------------------------------------------
----------------------------------------------------------------- X 2
------------7--------------------7~~~----------------------------
---5--7--8-----8--7-----5--7--8----------------------------------
----------------------------------------------------------------- 


now the fast riff:

-----------------------------------------------------------------
-----------------------------------------------------------------
-----------------------------------------------------------------
---------p.o---------h.o-------------p.o---------h.o----------------
---0-0-6-----3-----5-----6-----0-0-6-----3-----5-----6-----------
----------------------------------------------------------------- continued


---------------------------------------------
---------------------------------------------
---------------------------------------------
---------p.o---------h.o---------------5-5---
---0-0-6-----3-----5-----6-----0-0-0-0-3-3---
--------------------------------------------- continued


-----------------------------------------------------------------
-----------------------------------------------------------------
-----------------------------------------------------------------
---------p.o---------h.o-------------p.o---------h.o-------------
---0-0-6-----3-----5-----6-----0-0-6-----3-----5-----6-----------
----------------------------------------------------------------- continued


---------------------------------------------
---------------------------------------------
--------------------------------------------- X 2
---------p.o---------h.o---------------------
---0-0-6-----3-----5-----6-----0-0-0-0-6-6---
---------------------------------------4-4---
    ^^^^^^^^^^^^^^^^^^^^^^
 Last time this bit is harmonised
 (haven't worked it out yet)


now comes the clean electric picking part - I haven't really worked it
out yet...sorry


then the rhythm comes in:

---------------------------------------
---------------------------------------
---------------------------------------
---------------------------------------
-0-0-0-0---0-0-0-0---0-0-0-0-0-0-0-0---
---------------------------------------

--------------------------------------------------------------------
--------------------------------------------------------------------
---5------------5--------4----------4--------5------------5--------4
---7---------7-----7-7---6-------6-----6-6---7---------7-----7-7---6
--------------------------------------------------------------------
-------------------------------------------------------------------- cont.
  ^^^                   ^^^                 ^^^                   ^^^
let these chords ring


-------------
------h------
------4------  	
-------------  X 2
-------------
-------------

1st time play the natural harmonic here 
and dive it with the bar, 
second time it's just a pick scrape down the A string


now the verse riff starts:

   Alice isn't it frightening            Alice aren't you scared
----------------------------------------------------------------------------
----------------------------------------------------------------------------
----------------------------------------------------------------------------
---5-----------------------------5-------4----------------------------------
---3---0-0-0--0-0-0--0-0-0--0-0--3--0-0--2---0-0-0--0-0-0--0----------------
-------------------------------------------------------------0-0-2-3-5-3-2--
					^^^^^^^^^^^^^^^
					play these with pinch
					 harmonics

the verses all follow this pattern except for the stops occassionally.
listen to the rhythm because the chords stay the same as here.


I can't remember the rest - I'll try and work out a complete version soon.

Morgan.
Добавлено: 10.04.2012
Другие материалы по этой песне:

Страница создана 25.02.2012
http://primanota.ru/annihilator/alison-hell-chords.htm
Привет, Гость.
Предлагаем пройти революционный курс по гитаре.
Подарок от PrimaNota.Ru, забирай!