PrimaNota.ru - самый крупный в мире бесплатный архив песенных текстов, аккордов, табулатур и нот


Annihilator - Tricks And Traps - текст песни, таба, видео

Регистрация Запомнить меня
Войти через:  Facebook Google Twitter Vk Yandex Mail.ru

Annihilator - Tricks And Traps - текст песни, таба, видео

Печатать
Просмотров: 161
Annihilator - Tricks And Traps

tabbed by ol753
www.annihilatormetal.com
ol753_357lo@yahoo.co.uk

Tuning - E A D G B E


Both Gtrs
play twice
|---0-----------0---0---------------0-----------0---0-------0-------|
|-----0-------0-------0-------0-------0-------0-------0-------0-----|
|-------3---3-----------3---3-----------3---3-----------3-------3---|
|---------6---------------6---------------6---------------6---------|
|---------------------------------4---------------4-----------------|
|-0---------------0-------------0-----------------------------------|


Gtr 3
2nd time
|----0-0----0-0-0-0----0-0----0-0-0-0----0-0----0-0-0-0----0-0----0-0-0-0----|
|--------------------9------9----------9------9----------9------9------------|
|-11-----11---------11-----11---------11-----11---------11-----11------------|
|----------------------------------------------------------------------------|
|----------------------------------------------------------------------------|
|----------------------------------------------------------------------------|


Gtr 1
play 4 times
|---0-----------0---0---------------0-----------0---0-------0-------|
|-----0-------0-------0-------0-------0-------0-------0-------0-----|
|-------3---3-----------3---3-----------3---3-----------3-------3---|
|---------6---------------6---------------6---------------6---------|
|---------------------------------4---------------4-----------------|
|-0---------------0-------------0-----------------------------------|


Gtr 2
play twice
                   PM
|-------------------------|
|-------------------------|
|-------------------------|
|--------------------6----|
|-2------------------4----|
|-0----------------0------|


                   PM
|-------------------------------------------|
|-------------------------------------------|
|-------------------------------------------|
|--------------------6-------6-6-6--------6-|
|-2------------------4-------4-4-4--------4-|
|-0----------------0------------------------|


  PM----------------------------|   PM----------|
|--------------------------------------------------------------------|
|--------------------------------------------------------------------|
|--------------------------------------------------------------------|
|---------------------------------6---------------6-6-6-6-6-6-6------|
|---------------------------------4-4-4-4-4-4-4-4-4-4-4-4-4-4-4------|
|-0-0-0-0-0-0-0-0-0-0-0-0-0-0-0-0-------------------------------\----|


Gtr 3
play 4 times
|----0-0----0-0-0-0----0-0----0-0-0-0----0-0----0-0-0-0----0-0----0-0-0-0----|
|--------------------9------9----------9------9----------9------9------------|
|-11-----11---------11-----11---------11-----11---------11-----11------------|
|----------------------------------------------------------------------------|
|----------------------------------------------------------------------------|
|----------------------------------------------------------------------------|


Gtr 1
          PM--|                   PM--|
|-------------------------------------------------|
|-------------------------------------------------|
|---0-----------------------0---------------------|
|---0-----------------------0---------------------|
|-2-2-7-8-------7-6-------2-2-7-8-------7-6tr7----|
|-0-3-5-6-5-7-8-----8-7-5-0-3-5-6-5-7-8-----------|


          PM--|                    PM---|
|---------------------------------------------------|
|---------------------------------------------------|
|---0-----------------------0-------------9-8tr9----|
|---0-----------------------0------7-9-10-----------|
|-2-2-7-8-------7-6-------2-2-7-8-------------------|
|-0-3-5-6-5-7-8-----8-7-5-0-3-5-6-------------------|


Gtr 2
          PM--|                   PM---|
|-----------------------------------------------------|
|-----------------------------------------------------|
|---0-----------------------0-------------------------|
|---0-----------------------0-------------------------|
|-2-2-7-8-------7-6-------2-2-7-8---------10-9tr10----|
|-0-3-5-6-5-7-8-----8-7-5-0-3-5-6-8-10-11-------------|


          PM--|                    PM---|
|-------------------------------------------------------|
|-------------------------------------------------------|
|---0-----------------------0--------------12-11tr12----|
|---0-----------------------0-----10-12-13--------------|
|-2-2-7-8-------7-6-------2-2-7-8-----------------------|
|-0-3-5-6-5-7-8-----8-7-5-0-3-5-6-----------------------|


Both Gtrs
|--------------------------------------------------------------------|
|-------5-4-3-----------5-4-3-----------8-7-6-----------8-7-6--------|
|-2-4-5-------5-4-2-4-5-------5-4-5-7-8-------8-7-5-7-8-------8-7----|
|--------------------------------------------------------------------|
|--------------------------------------------------------------------|
|--------------------------------------------------------------------|


|---------------------------------------------------------------------------------|
|--------10-9-8-------------10-9-8---------------13-12-11----------------13-12\---|
|-7-9-10--------10-9-7-9-10--------10-9-10-12-13----------13-12-10-12-13----------|
|---------------------------------------------------------------------------------|
|---------------------------------------------------------------------------------|
|---------------------------------------------------------------------------------|


Gtr 1
          PM--|                   PM--|
|-------------------------------------------------|
|-------------------------------------------------|
|---0-----------------------0---------------------|
|---0-----------------------0---------------------|
|-2-2-7-8-------7-6-------2-2-7-8-------7-6tr7----|
|-0-3-5-6-5-7-8-----8-7-5-0-3-5-6-5-7-8-----------|


          PM--|                    PM---|
|---------------------------------------------------|
|---------------------------------------------------|
|---0-----------------------0-------------9-8tr9----|
|---0-----------------------0------7-9-10-----------|
|-2-2-7-8-------7-6-------2-2-7-8-------------------|
|-0-3-5-6-5-7-8-----8-7-5-0-3-5-6-------------------|


Gtr 2
          PM--|                   PM---|
|-----------------------------------------------------|
|-----------------------------------------------------|
|---0-----------------------0-------------------------|
|---0-----------------------0-------------------------|
|-2-2-7-8-------7-6-------2-2-7-8---------10-9tr10----|
|-0-3-5-6-5-7-8-----8-7-5-0-3-5-6-8-10-11-------------|


          PM--|                    PM---|
|-------------------------------------------------------|
|-------------------------------------------------------|
|---0-----------------------0--------------12-11tr12----|
|---0-----------------------0-----10-12-13--------------|
|-2-2-7-8-------7-6-------2-2-7-8-----------------------|
|-0-3-5-6-5-7-8-----8-7-5-0-3-5-6-----------------------|


Both Gtrs
|------|
|------|
|------|
|------|
|-2----|
|-0----|


Gtr 1, Gtr 2 accentuates parts
                              PM  PM  PM  PM|
|----------------------------------------------|
|----------------------------------------------|
|----------------------------------------------|
|----------------------------------------------|
|-9-8-9-8-9-8-9-11-11-9-8-9-8---8---7---5------|
|-7-7-7-7-7-7-7--7--7-7-7-7-7-0-6-0-5-0-3-0-0--|


                              PM|   PM|   PM|   PM----|
|-------------------------------------------------------|
|-------------------------------------------------------|
|-------------------------------------------------------|
|-------------------------------------------------------|
|-9-8-9-8-9-8-9-11-11-9-8-9-8-----8-----7-----5---------|
|-7-7-7-7-7-7-7--7--7-7-7-7-7-0-0-6-0-0-5-0-0-3-0-0-0-0-|


Verse
play twice
                              PM  PM  PM  PM|
|----------------------------------------------|
|----------------------------------------------|
|----------------------------------------------|
|----------------------------------------------|
|-9-8-9-8-9-8-9-11-11-9-8-9-8---8---7---5------|
|-7-7-7-7-7-7-7--7--7-7-7-7-7-0-6-0-5-0-3-0-0--|


                              PM|   PM|   PM|   PM----|
|-------------------------------------------------------|
|-------------------------------------------------------|
|-------------------------------------------------------|
|-------------------------------------------------------|
|-9-8-9-8-9-8-9-11-11-9-8-9-8-----8-----7-----5---------|
|-7-7-7-7-7-7-7--7--7-7-7-7-7-0-0-6-0-0-5-0-0-3-0-0-0-0-|


Chorus
Both Gtrs
    PM  PM  PM|   PM|         PM|   PM  PM  PM|
|--------------------------------------------------------------------|
|--------------------------------------------------------------------|
|---------------------------0----------------------------------------|
|-6-----------------------0-------6----------------------------------|
|-4---6---5-----3-------1---------4---6---5---------8-7---------5----|
|---0-4-0-3-0-0-1-0-0-3-------0-0---0-4-0-3-0-0-0-6-----5-0-3-4------|


    PM  PM  PM|   PM|         PM|   PM  PM  PM|
|--------------------------------------------------------------------|
|--------------------------------------------------------------------|
|---------------------------0----------------------------------------|
|-6-----------------------0-------6----------------------------------|
|-4---6---5-----3-------1---------4---6---5---------8-7---------5----|
|---0-4-0-3-0-0-1-0-0-3-------0-0---0-4-0-3-0-0-0-6-----5-0-3-4------|


Both Gtrs
|------|
|------|
|------|
|------|
|-2----|
|-0----|


Gtr 1
                              PM  PM  PM  PM|
|----------------------------------------------|
|----------------------------------------------|
|----------------------------------------------|
|----------------------------------------------|
|-9-8-9-8-9-8-9-11-11-9-8-9-8---8---7---5------|
|-7-7-7-7-7-7-7--7--7-7-7-7-7-0-6-0-5-0-3-0-0--|


Both Gtrs
                              PM|   PM|   PM|   PM----|
|-------------------------------------------------------|
|-------------------------------------------------------|
|-------------------------------------------------------|
|-------------------------------------------------------|
|-9-8-9-8-9-8-9-11-11-9-8-9-8-----8-----7-----5---------|
|-7-7-7-7-7-7-7--7--7-7-7-7-7-0-0-6-0-0-5-0-0-3-0-0-0-0-|


Repeat Verse
Play Chorus twice


Gtr 1
    PM  PM  PM|   PM|         PM|   PM  PM  PM|
|------------------------------------------------------------------|
|------------------------------------------------------------------|
|---------------------------0--------------------------------------|
|-6-----------------------0-------6--------------------------------|
|-4---6---5-----3-------1---------4---6---5---------8-7------------|
|---0-4-0-3-0-0-1-0-0-3-------0-0---0-4-0-3-0-0-0-6-----5-0-3-4----|


play 3 times
    PM|   PM  PM|   PM|         PM|   PM  PM  PM|
|--------------------------------------------------------------------|
|--------------------------------------------------------------------|
|-----------------------------0--------------------------------------|
|-6-------------------------0-------6--------------------------------|
|-4-----6---5-----3-------1---------4---6---5---------8-7------------|
|---0-0-4-0-3-0-0-1-0-0-3-------0-0---0-4-0-3-0-0-0-6-----5-0-3-4----|


Gtr 2
    PM  PM  PM|   PM|         PM|   PM  PM  PM|
|--------------------------------------------------------------------|
|--------------------------------------------------------------------|
|---------------------------0----------------------------------------|
|-6-----------------------0-------6----------------------------------|
|-4---6---5-----3-------1---------4---6---5---------11-10------------|
|---0-4-0-3-0-0-1-0-0-3-------0-0---0-4-0-3-0-0-0-9-------8-0-6-7----|


play 3 times
    PM|   PM  PM|   PM|         PM|   PM  PM  PM|
|----------------------------------------------------------------------|
|----------------------------------------------------------------------|
|-----------------------------0----------------------------------------|
|-6-------------------------0-------6----------------------------------|
|-4-----6---5-----3-------1---------4---6---5---------11-10------------|
|---0-0-4-0-3-0-0-1-0-0-3-------0-0---0-4-0-3-0-0-0-9-------8-0-6-7----|


Gtr 1
play twice
|----------------------|
|----------------------|
|------0---------0-----|
|------0----3----0-----|
|-2----2----1----2-----|
|-0----3----1----3-----|


|---------------------------------------------|
|---------------------------------------------|
|------0--------------------------------------|
|------0--------------------------------------|
|-2----2--------------------------------------|
|-0----3----1--1-1-1-1-1-1-1-1-1-1-1-1-1-1----|


Gtr 2
play 3 times
    PM|   PM  PM--|   PM  PM    PM
|------------------------------------|
|------------------------------------|
|------------------------------------|
|-------6----------------------------|
|-2-----4---6-------5---6---5S6------|
|-0-0-0---0-4-0-0-0-3-0-4-0-3S4-0----|


4th time
|-----------------------------------|
|-----------------------------------|
|-----------------------------------|
|-----------------------------------|
|-3--3-3-3-3-3-3-3-3-3-3-3-3-3-3----|
|-1--1-1-1-1-1-1-1-1-1-1-1-1-1-1----|


play 3 times
    PM|   PM  PM--|   PM  PM    PM
|------------------------------------|
|------------------------------------|
|------------------------------------|
|-------6----------------------------|
|-2-----4---6-------5---6---5S6------|
|-0-0-0---0-4-0-0-0-3-0-4-0-3S4-0----|


4th time
|---------------------------------------------|
|---------------------------------------------|
|---------------------------------------------|
|------------------10-10-10-10-10-10-10-10----|
|-3--3-3-3-3-3-3-3--8--8--8--8--8--8--8--8----|
|-1--1-1-1-1-1-1-1----------------------------|


Both Gtrs
play twice, Gtr 3 Lead (to be added)
  PM|   PM|   PM  PM|    PM|    PM|   PM|   PM  PM|    PM|
|---------------------------------------------------------------|
|---------------------------------------------------------------|
|---------------------------------------------------------------|
|---------------------------------------------------4------6----|
|-----6-----6---6-----2------4------6-----6---6-2-2-2--4-4-4----|
|-4-4-4-4-4-4-4-4-0-0-0--2-2-2--4-4-4-4-4-4-4-4-----------------|


Both Gtrs
play twice
  PM------------------------------------------------------------|
|--------------------------------------------------------------------|
|--------------------------------------------------------------------|
|--------------------------------------------------------------------|
|--------------------------------------------------------------------|
|-5-5-5-5-5-5-5-5-5-5-5-5-5-5-5-5-1-1-1-1-1-1-1-1-3-3-3-3-3-3-3-3----|
|--------------------------------------------------------------------|


  PM----------------------------|
|-----------------------------------------------|
|-----------------------------------------------|
|---------------------------------5--------7----|
|---------------------------------3--------5----|
|-5-5-5-5-5-5-5-5-5-5-5-5-5-5-5-5---------------|
|-----------------------------------------------|


Both Gtrs
play twice
  PM------------------------------------------------------------|
|--------------------------------------------------------------------|
|--------------------------------------------------------------------|
|--------------------------------------------------------------------|
|--------------------------------------------------------------------|
|--------------------------------------------------------------------|
|-4-4-4-4-4-4-4-4-4-4-4-4-4-4-4-4-0-0-0-0-0-0-0-0-2-2-2-2-2-2-2-2----|


|--------------------------------------------------------------------|
|--------------------------------------------------------------------|
|--------------------------------------------------------------------|
|--------------------------------------------------------------------|
|---------------------------------2-2-2-2-2-2-2-2-4-4-4-4-4-4-4-4----|
|-4-4-4-4-4-4-4-4-4-4-4-4-4-4-4-4------------------------------------|


Both Gtrs
|---------------------------------------------------------------|
|---------------------------------------------------------------|
|---------------------------------------------------------------|
|---------------------------------------------------------------|
|-8-8-8-8-8-8-8-8-8-8-8-8-8-8-8-8-8-8-8-8-8-8-8-8-8--8--8--8----|
|-6-6-6-6-6-6-6-6-6-6-6-6-6-6-6-6-6-6-6-6-6-6-6-6-6--6--6--6----|


Both Gtrs
                              PM  PM  PM  PM|
|----------------------------------------------|
|----------------------------------------------|
|----------------------------------------------|
|----------------------------------------------|
|-9-8-9-8-9-8-9-11-11-9-8-9-8---8---7---5------|
|-7-7-7-7-7-7-7--7--7-7-7-7-7-0-6-0-5-0-3-0-0--|


                              PM|   PM|   PM|   PM----|
|-------------------------------------------------------|
|-------------------------------------------------------|
|-------------------------------------------------------|
|-------------------------------------------------------|
|-9-8-9-8-9-8-9-11-11-9-8-9-8-----8-----7-----5---------|
|-7-7-7-7-7-7-7--7--7-7-7-7-7-0-0-6-0-0-5-0-0-3-0-0-0-0-|


Repeat Verse
Play Chorus twice


Both Gtrs
play 3 times
    PM  PM  PM|   PM|         PM|   PM  PM  PM|
|--------------------------------------------------------------------|
|--------------------------------------------------------------------|
|---------------------------0----------------------------------------|
|-6-----------------------0-------6----------------------------------|
|-4---6---5-----3-------1---------4---6---5---------8-7---------5----|
|---0-4-0-3-0-0-1-0-0-3-------0-0---0-4-0-3-0-0-0-6-----5-0-3-4------|


Gtr 1
          PM--|                    PM---|
|---------------------------------------------------|
|---------------------------------------------------|
|---0-----------------------0-------------9-8tr9----|
|---0-----------------------0------7-9-10-----------|
|-2-2-7-8-------7-6-------2-2-7-8-------------------|
|-0-3-5-6-5-7-8-----8-7-5-0-3-5-6-------------------|


Gtr 2
          PM--|                    PM---|
|-------------------------------------------------------|
|-------------------------------------------------------|
|---0-----------------------0--------------12-11tr12----|
|---0-----------------------0-----10-12-13--------------|
|-2-2-7-8-------7-6-------2-2-7-8-----------------------|
|-0-3-5-6-5-7-8-----8-7-5-0-3-5-6-----------------------|


Both Gtrs
      PM--|
|----------------|
|----------------|
|----------------|
|-----------9----|
|-2---------7----|
|-0---0-0-0------|


Tablature Legend
----------------
 h   - hammer-on
 p   - pull-off
 b   - bend
 pb  - pre-bend
 r   - bend release (if no number after the r, then release immediately)
 /\  - slide into or out of (from/to "nowhere")
 s   - legato slide
 S   - shift slide
  - natural harmonic
[n]  - artificial harmonic
n(n) - tapped harmonic
 ~   - vibrato
 tr  - trill
 T   - tap
 TP  - trem. picking
 PM  - palm muting
\n/  - tremolo bar dip; n = amount to dip
 \n  - tremolo bar down
 n/  - tremolo bar up
/n\  - tremolo bar inverted dip
 =   - hold bend; also acts as connecting device for hammers/pulls
 <>  - volume swell (louder/softer)
 x   - on rhythm slash represents muted slash
 o   - on rhythm slash represents single note slash

Misc Legend
-----------
 |  - bar
||  - double bar
||o - repeat start
o|| - repeat end
*|  - double bar (ending)
 :  - bar (freetime)
 $  - Segno
 &  - Coda
Tempo markers -  = BPM(8/16=s8/s16), where s8 = swing 8ths, s16 = swing 16ths

Добавлено: 28.06.2012
Другие материалы по этой песне:
  • Аккорды и текст

Страница создана 22.02.2012
http://primanota.ru/annihilator/tricks-and-traps-chords.htm
Привет, Гость.
Предлагаем пройти революционный курс по гитаре.
Подарок от PrimaNota.Ru, забирай!