PrimaNota.ru - самый крупный в мире бесплатный архив песенных текстов, аккордов, табулатур и нот


Annihilator - Syn Kill 1 - текст песни, таба, видео

Регистрация Запомнить меня
Войти через:  Facebook Google Twitter Vk Yandex Mail.ru

Annihilator - Syn Kill 1 - текст песни, таба, видео

Печатать
Просмотров: 178
Уроки эстрадного вокала в Санкт-Петербурге
Annihilator - Syn. Kill 1

tabbed by ol753
www.annihilatormetal.com
ol753_357lo@yahoo.co.uk

Tuning - E A D G B E


Both Gtrs
play 8 times
  PM---|    PM--------|    PM
|-------------------------------|
|-------------------------------|
|-------------------------------|
|-------------------------------|
|--------8\-------------8-------|
|-0-0--0-6\-0-0-0-0-0-0-6--0----|


Gtr 1
play 4 times
  PM---|      PM----|    PM------|    PM--------|    PM
|---------------------------------------------------------|
|---------------------------------------------------------|
|---------------------------------------------------------|
|---------------------------------------------------------|
|--------8\-----------8------------8\-------------8-------|
|-0-0--0-6\---0-0-0-0-6--0--0-0--0-6\-0-0-0-0-0-0-6--0----|


Gtr 2
play 4 times
|--------------------------|
|--------3-----------------|
|-4------2------4----------|
|-2------0------2-----3----|
|-2------0------2-----1----|
|--------------------------|


Both Gtrs
play 4 times
  PM---|    PM--------|    PM
|-------------------------------|
|-------------------------------|
|-------------------------------|
|-------------------------------|
|--------8\-------------8-------|
|-0-0--0-6\-0-0-0-0-0-0-6--0----|


Verse
Both Gtrs
play 8 times
  PM---|      PM----|    PM
|-----------------------------|
|-----------------------------|
|-----------------------------|
|-----------------------------|
|--------8\-----------8-------|
|-0-0--0-6\---0-0-0-0-6--0----|


Chorus
Gtr 1
play 4 times
  PM---|      PM----|    PM------|    PM--------|    PM
|---------------------------------------------------------|
|---------------------------------------------------------|
|---------------------------------------------------------|
|---------------------------------------------------------|
|--------8\-----------8------------8\-------------8-------|
|-0-0--0-6\---0-0-0-0-6--0--0-0--0-6\-0-0-0-0-0-0-6--0----|


Gtr 2
play 4 times
|--------------------------|
|--------3-----------------|
|-4------2------4----------|
|-2------0------2-----3----|
|-2------0------2-----1----|
|--------------------------|


Both Gtrs
play 4 times
  PM---|    PM--------|    PM
|-------------------------------|
|-------------------------------|
|-------------------------------|
|-------------------------------|
|--------8\-------------8-------|
|-0-0--0-6\-0-0-0-0-0-0-6--0----|


Repeat verse


Both Gtrs
play 4 times
    PM  PM           PM  PM  PM  PM|   PM   PM|            PM
|-------------------------------------------------------------|
|-------------------------------------------------------------|
|-------------------------------------------------------------|
|-------------------------------------------------------------|
|-8---1---3------5-----7---8---8-----1---3------------2--2----|
|-6-0-3-0-5--0-0-3p0-0-5-0-6-0-6-0-0-3-0-5--0-0-3p0-0-0--0-0--|


Both Gtrs
play twice
    PM  PM           PM  PM  PM  PM|   PM   PM|            PM
|-------------------------------------------------------------|
|-------------------------------------------------------------|
|-------------------------------------------------------------|
|-------------------------------------------------------------|
|-8---1---3------5-----7---8---8-----1---3------------2--2----|
|-6-0-3-0-5--0-0-3p0-0-5-0-6-0-6-0-0-3-0-5--0-0-3p0-0-0--0-0--|


Gtr 3
|--------------------------------------------------------------------|
|--------------------------------------------------------------------|
|-7h9-9-9-9-9-9-9-9-9-9-9-9-9-9-9-9-9-9-9-9-9-9-9-9-9-9-9-9-9-9-9----|
|--------------------------------------------------------------------|
|--------------------------------------------------------------------|
|--------------------------------------------------------------------|


|-----------------6-6-6-6-6-6-9-9-9-9-9-9-9-9-9-9--7----------|
|-8-8-8-8-8-8-8-8-8-8-8-8-8-8-8-8-8-8-8-8-8-8-8-8--8----------|
|-9-9-9-9-9-9-9-9-9-9-9-9-9-9-9-9-9-9-9-9-9-9-9-9----9-9-9\---|
|-------------------------------------------------------------|
|-------------------------------------------------------------|
|-------------------------------------------------------------|


Both Gtrs
play 3 times
  PM--------------------------|   PM---------------------|     PM
|-------------------------------------------------------------------|
|-------------------------------------------------------------------|
|-------------------------------------------------------------------|
|-------------------------------------------------------------------|
|-------------------------------7---8----------------------------2--|
|-0-0-0-0-0-0-0-0-0-0-0-0-0-0-0-5-0-6-0-0-0-0-0-00-0-0-0-0-3p0-0-0--|


4th time
  PM--------------------------|   PM  PM  PM|   PM   PM|     PM     PM
|----------------------------------------------------------------------|
|----------------------------------------------------------------------|
|----------------------------------------------------------------------|
|----------------------------------------------------------------------|
|-------------------------------7---8---8-----1---3------------2--2----|
|-0-0-0-0-0-0-0-0-0-0-0-0-0-0-0-5-0-6-0-6-0-0-3-0-5--0-0-3p0-0-0--0-0--|


Both Gtrs
play 4 times
    PM  PM           PM  PM  PM  PM|   PM   PM|            PM
|-------------------------------------------------------------|
|-------------------------------------------------------------|
|-------------------------------------------------------------|
|-------------------------------------------------------------|
|-8---1---3------5-----7---8---8-----1---3------------2--2----|
|-6-0-3-0-5--0-0-3p0-0-5-0-6-0-6-0-0-3-0-5--0-0-3p0-0-0--0-0--|


Gtr 3
|--------------------------------------------------------------------|
|--------------------------------------------------------------------|
|-7h9-9-9-9-9-9-9-9-9-9-9-9-9-9-9-9-9-9-9-9-9-9-9-9-9-9-9-9-9-9-9----|
|--------------------------------------------------------------------|
|--------------------------------------------------------------------|
|--------------------------------------------------------------------|


|--------------------------------------------------------------------|
|--------------------------------------------------------------------|
|-9-9-9-9-9-9-9-9-9-9-9-9-9-9-9-9-9-9-9-9-9-9-9-9-9-9-9-9-9-9-9-9----|
|--------------------------------------------------------------------|
|--------------------------------------------------------------------|
|--------------------------------------------------------------------|


|--------------------------------------------------------------------|
|-8-8-8-8-8-8-8-8-8-8-8-8-8-8-8-8-8-8-8-8-8-8-8-8-8-8-8-8-8-8-8-8----|
|-9-9-9-9-9-9-9-9-9-9-9-9-9-9-9-9-9-9-9-9-9-9-9-9-9-9-9-9-9-9-9-9----|
|--------------------------------------------------------------------|
|--------------------------------------------------------------------|
|--------------------------------------------------------------------|


|-6-6-6-6-6-6-6-6-9-9-9-9-9-9-9-9-12-12-12-12-12-12-12-12--7---------7---------7----------|
|-8-8-8-8-8-8-8-8-8-8-8-8-8-8-8-8-11-11-11-11-11-11-11-11--8---------8---------8----------|
|-9-9-9-9-9-9-9-9-9-9-9-9-9-9-9-9--9--9--9--9--9--9--9--9----9-9-9-----9-9-9-----9-9-9\---|
|-----------------------------------------------------------------------------------------|
|-----------------------------------------------------------------------------------------|
|-----------------------------------------------------------------------------------------|


Both Gtrs
play 4 times
  PM---|    PM--------|    PM
|-------------------------------|
|-------------------------------|
|-------------------------------|
|-------------------------------|
|--------8\-------------8-------|
|-0-0--0-6\-0-0-0-0-0-0-6--0----|


Chorus
Gtr 1
play twice
  PM---|      PM----|    PM------|    PM--------|    PM
|---------------------------------------------------------|
|---------------------------------------------------------|
|---------------------------------------------------------|
|---------------------------------------------------------|
|--------8\-----------8------------8--------------8-------|
|-0-0--0-6\---0-0-0-0-6--0--0-0--0-6--0-0-0-0-0-0-6--0----|


Gtr 2
play twice
|--------------------------|
|--------3-----------------|
|-4------2------4----------|
|-2------0------2-----3----|
|-2------0------2-----1----|
|--------------------------|


Repeat Verse


Both Gtrs
play 6 times
    PM  PM           PM  PM  PM  PM|   PM   PM|            PM
|-------------------------------------------------------------|
|-------------------------------------------------------------|
|-------------------------------------------------------------|
|-------------------------------------------------------------|
|-8---1---3------5-----7---8---8-----1---3------------2--2----|
|-6-0-3-0-5--0-0-3p0-0-5-0-6-0-6-0-0-3-0-5--0-0-3p0-0-0--0-0--|


Both Gtrs
play 3 times
    PM  PM           PM  PM  PM  PM|   PM   PM|            PM
|-------------------------------------------------------------|
|-------------------------------------------------------------|
|-------------------------------------------------------------|
|-------------------------------------------------------------|
|-8---1---3------5-----7---8---8-----1---3------------2--2----|
|-6-0-3-0-5--0-0-3p0-0-5-0-6-0-6-0-0-3-0-5--0-0-3p0-0-0--0-0--|


4th time
    PM  PM           PM  PM  PM  PM|   PM   PM|
|----------------------------------------------------------------------------|
|----------------------------------------------------------------------------|
|----------------------------------------------------------------------------|
|----------------------------------------------------------------------------|
|-8---1---3------5-----7---8---8-----1---3------------2--------2--------2----|
|-6-0-3-0-5--0-0-3p0-0-5-0-6-0-6-0-0-3-0-5--0-0-3p0-0-0--3p0-0-0--3p0-0-0----|


Gtr 3
|--------------------------------------------------------------------|
|--------------------------------------------------------------------|
|-7h9-9-9-9-9-9-9-9-9-9-9-9-9-9-9-9-9-9-9-9-9-9-9-9-9-9-9-9-9-9-9----|
|--------------------------------------------------------------------|
|--------------------------------------------------------------------|
|--------------------------------------------------------------------|


|--------------------------------------------------------------------|
|--------------------------------------------------------------------|
|-9-9-9-9-9-9-9-9-9-9-9-9-9-9-9-9-9-9-9-9-9-9-9-9-9-9-9-9-9-9-9-9----|
|--------------------------------------------------------------------|
|--------------------------------------------------------------------|
|--------------------------------------------------------------------|


|--------------------------------------------------------------------|
|-8-8-8-8-8-8-8-8-8-8-8-8-8-8-8-8-8-8-8-8-8-8-8-8-8-8-8-8-8-8-8-8----|
|-9-9-9-9-9-9-9-9-9-9-9-9-9-9-9-9-9-9-9-9-9-9-9-9-9-9-9-9-9-9-9-9----|
|--------------------------------------------------------------------|
|--------------------------------------------------------------------|
|--------------------------------------------------------------------|


|-6-6-6-6-6-6-6-6-9-9-9-9-9-9-9-9-12-12-12-12-12-12-12-12--7---------7---------7--------|
|-8-8-8-8-8-8-8-8-8-8-8-8-8-8-8-8-11-11-11-11-11-11-11-11--8---------8---------8--------|
|-9-9-9-9-9-9-9-9-9-9-9-9-9-9-9-9--9--9--9--9--9--9--9--9----9-9-9-----9-9-9-----9-9-9\-|
|---------------------------------------------------------------------------------------|
|---------------------------------------------------------------------------------------|
|---------------------------------------------------------------------------------------|


Both Gtrs
repeats to fade
  PM---|    PM--------|    PM
|-------------------------------|
|-------------------------------|
|-------------------------------|
|-------------------------------|
|--------8\-------------8-------|
|-0-0--0-6\-0-0-0-0-0-0-6--0----|


Tablature Legend
----------------
 h   - hammer-on
 p   - pull-off
 b   - bend
 pb  - pre-bend
 r   - bend release (if no number after the r, then release immediately)
 /\  - slide into or out of (from/to "nowhere")
 s   - legato slide
 S   - shift slide
  - natural harmonic
[n]  - artificial harmonic
n(n) - tapped harmonic
 ~   - vibrato
 tr  - trill
 T   - tap
 TP  - trem. picking
 PM  - palm muting
\n/  - tremolo bar dip; n = amount to dip
 \n  - tremolo bar down
 n/  - tremolo bar up
/n\  - tremolo bar inverted dip
 =   - hold bend; also acts as connecting device for hammers/pulls
 <>  - volume swell (louder/softer)
 x   - on rhythm slash represents muted slash
 o   - on rhythm slash represents single note slash

Misc Legend
-----------
 |  - bar
||  - double bar
||o - repeat start
o|| - repeat end
*|  - double bar (ending)
 :  - bar (freetime)
 $  - Segno
 &  - Coda
Tempo markers -  = BPM(8/16=s8/s16), where s8 = swing 8ths, s16 = swing 16ths

Добавлено: 08.05.2012
Другие материалы по этой песне:
  • Аккорды и текст

Страница создана 24.02.2012
http://primanota.ru/annihilator/syn-kill-1-chords.htm
Привет, Гость.
Предлагаем пройти революционный курс по гитаре.
Подарок от PrimaNota.Ru, забирай!