PrimaNota.ru - самый крупный в мире бесплатный архив песенных текстов, аккордов, табулатур и нот


Annihilator - Never Neverland - текст песни, таба, бас-таба, видео

Регистрация Запомнить меня
Войти через:  Facebook Google Twitter Vk Yandex Mail.ru

Annihilator - Never Neverland - текст песни, таба, бас-таба, видео

Печатать
Просмотров: 222
Авторы музыки: Jeff Waters
Авторы текста: Jeff Waters
Annihilator - Never, Neverland

Posted By Annihilator666

Transcribed by: ol753_357lo@yahoo.co.uk

Tuning - E A D G B E


Both Gtrs
|---------------------------------------------------------|
|--------------------------------------0-------------0----|
|-------0--------------3-------------5-------------5------|
|-----4--------------7-------------2-------------3--------|
|---2--------------5-------------0-------------0----------|
|-0--------------3----------------------------------------|


Gtr 1
|---------------------|
|---------------------|
|---------------------|
|-----5--7--4---------|
|-5h7----------5-3----|
|---------------------|


Gtr 2
|-----------------------|
|-----------------------|
|-----------------------|
|------9--10--7---------|
|-9h10-----------9-7----|
|-----------------------|


Both Gtrs
  PM|    PM|                  PM|    PM|
|----------------------0---------------------------3------|
|------------------------0---------------------------3----|
|-----0------0-------------0------3------3-------------3--|
|-----4------4--------------------7------7----------------|
|-----2------2--------------------5------5----------------|
|-0-0-0--0-0-0----------------3-3-3--3-3-3----------------|


  PM|     PM|                   PM|    PM|
|--------------------------------------------------5--------|
|----------------------------------------------------5------|
|------7-------7-----------7--------5------5-----------5----|
|-----11------11-------------11-----9------9-------------9--|
|------9-------9---------9----------7------7----------------|
|-7-7--7--7-7--7----------------5-5-5--5-5-5----------------|


Both Gtrs
  PM--|     PM    PM--|     PM    PM--|     PM    PM-------------------|     PM
|----------------------------------------------------------------------|
|----------------------------------------------------------------------|
|-------0-----0---------0-----0---------3-----3---------3-----3--------|
|-----4---4-----4-----4---4-----4-----7---7-----7-----7---7-----7------|
|---2-------2-------2-------2-------5-------5-------5-------5----------|
|-0---------------0---------------3---------------3--------------------|


  PM--|       PM     PM--|       PM     PM--|     PM    PM--|   PM--------------|
|-------------------------------------------------------------------------------|
|-------------------------------------------------------------------------------|
|--------7------7-----------7------7----------5-----5---------5-----------------|
|-----11---11-----11-----11---11-----11-----9---9-----9-----9-------------------|
|---9---------9--------9---------9--------7-------7-------7---------------------|
|-7------------------7------------------5---------------5-------\-\-\-\-\-------|


Gtr 3
|----------------------------|
|----------------------------|
|-<5>\--------------/<12>----|
|-<5>\--------------/<12>----|
|----------------------------|
|----------------------------|


|-------------------------------------------|
|---------<7>-------------------------------|
|---------<7>-------------------<5>-/<5>----|
|-----<5>-------------------<5>-------------|
|-<5>---------------------------------------|
|-------------------------------------------|

|------------------|
|--12tr15\---------|
|------------------|
|------------------|
|------------------|
|------------------|


|-------------------------|
|-------------------16----|
|-0\----------------17----|
|-------------------------|
|-------------------------|
|-------------------------|


|-----------7----------------------------------------------------------------------|
|-10b12-------10p7------7-10----------------------10-8--------------7-8-8-7-8-8-7--|
|------------------9b11------9b11--9b11r=9p7-9-------7-9-7----------7-9-9-7-9-9-7--|
|----------------------------------------------------------9-8-7-------------------|
|----------------------------------------------------------------10----------------|
|----------------------------------------------------------------------------------|


|------|
|------|
|------|
|------|
|------|
|-0\---|


|-----------------------|
|----------------<5>\---|
|-<5>\--\--\--\---------|
|-----------------------|
|-----------------------|
|-----------------------|


Both Gtrs
play 3 times
  PM-----------------------------|      PM---------------------------------|
|--------------------------------------------------------------------------|
|--------------------------------------------------------------------------|
|--------------------------------------------------------------------------|
|----------------------------------------------------------------2---------|
|----------------------------------------------------------------0--4------|
|-0--<3>-0-0-0-<3>-0-0-0-<3>-0-0-0-<3>--0--<3>-0-0-0-<3>-0-3-0-3----2------|


  PM-----------------------------|      PM---------------------------------|
|--------------------------------------------------------------------------|
|--------------------------------------------------------------------------|
|--------------------------------------------------------------------------|
|----------------------------------------------------------------2--5------|
|----------------------------------------------------------------0--3------|
|-0--<3>-0-0-0-<3>-0-0-0-<3>-0-0-0-<3>--0--<3>-0-0-0-<3>-0-3-0-3-----------|


Gtr 3
play twice
      PM|     PM|                      PM       PM      PM
|----------------------------------------------------------------|
|----------------------------------12----12S10----10S8----8S7----|
|-7h9-9-9-7h9-9-9-7h9-9-[9]--------------------12------11--------|
|----------------------------12h14----14-------------------------|
|----------------------------------------------------------------|
|----------------------------------------------------------------|


      PM|     PM|
|----------------------------------12-------14-------15-----------------|
|-----------------------------------------------------------------------|
|-7h9-9-9-7h9-9-9-7h9-9-9----11S12----12S14----14S16----16\---11--12----|
|-----------------------------------------------------------------------|
|-----------------------------------------------------------------------|
|-----------------------------------------------------------------------|


Gtr 4
play twice
         PM|         PM|                           PM       PM       PM
|-------------------------------------------------------------------------------|
|----------------------------------------------15----15S13----13S12----12S10----|
|-11h12-12-12-11h12-12-12-11h12-12-[12]--------------------14-------12----------|
|----------------------------------------16h17----17----------------------------|
|-------------------------------------------------------------------------------|
|-------------------------------------------------------------------------------|


         PM|         PM|
|----------------------------------------|
|----------------------------------------|
|-11h12-12-12-11h12-12-12-11h12-12-[12]--|
|----------------------------------------|
|----------------------------------------|
|----------------------------------------|


Gtr 1
play 4 times
|---0-----------------0---------3----|
|-----6-------6-----6---6-----3------|
|-------5---5-----5---------3--------|
|-0-------8-----7---------5----------|
|------------------------------------|
|------------------------------------|


Gtr 3
play twice
|----------------------------------------------------------|
|-6-5h6p5-------5-/8--6--5---------6-5h6p5-------5-/8--6---|
|---------7-5h7----------------------------7-5h7-----------|
|---------------------------7------------------------------|
|----------------------------------------------------------|
|----------------------------------------------------------|


Gtr 4
join 2nd time
|-----------------------------------------------------------------------|
|-10-8h10p8---------/8-11--10--8----------10-8h10p8---------8-/11--10---|
|-----------10-9h10---------------------------------10-9h10-------------|
|---------------------------------10------------------------------------|
|-----------------------------------------------------------------------|
|-----------------------------------------------------------------------|


Verse
Gtr 1
play 4 times
|---0-----0---------0-----0----------|
|-----3-----3---3-----3-----3---3----|
|-------2-----2---------2-----2------|
|-0---------------5------------------|
|------------------------------------|
|------------------------------------|


Gtr 2
play 4 times
|---0-----0---------0-----0----------|
|-----6-----6---6-----6-----6---6----|
|-------5-----5---------5-----5------|
|-0---------------8------------------|
|------------------------------------|
|------------------------------------|


Both Gtrs
|---3-----3---------5--------5------|
|-----3-----3---3-----5----5---5----|
|-------3-----3---------5-----------|
|-5---------------7-----------------|
|-----------------------------------|
|-----------------------------------|


Gtr 1
|---0-----0---------0-----0----------|
|-----3-----3---3-----3-----3---3----|
|-------2-----2---------2-----2------|
|-0---------------5------------------|
|------------------------------------|
|------------------------------------|


|---3-----3---------5--------5------|
|-----3-----3---3-----5----5---5----|
|-------3-----3---------5-----------|
|-5---------------7-----------------|
|-----------------------------------|
|-----------------------------------|


Gtr 2
|---0-----0---------0-----0----------|
|-----6-----6---6-----6-----6---6----|
|-------5-----5---------5-----5------|
|-0---------------8------------------|
|------------------------------------|
|------------------------------------|


|---6-----6----------8--------8------|
|-----6-----6---6------8----8---8----|
|-------7-----7----------9-----------|
|-8---------------10-----------------|
|------------------------------------|
|------------------------------------|


Gtr 1
play twice
|---0-----0---------0-----0----------|
|-----3-----3---3-----3-----3--------|
|-------2-----2---------2-----2h3----|
|-0---------------5------------------|
|------------------------------------|
|------------------------------------|


Gtr 2
play twice
|---0-----0---------0-----0----------|
|-----6-----6---6-----6-----6--------|
|-------5-----5---------5------------|
|-0---------------8-----------7h8----|
|------------------------------------|
|------------------------------------|


Both Gtrs
play 4 times
|---------------------------------------------------------0----------|
|-------------------------0---0---------0-------0-------0---0--------|
|-----6-------6-------6-----6---6-----6-------6-------6-------6------|
|---0---0---0---0---0---0-----------0-------0-------0-----------0----|
|-4-------4-------4---------------2-------2-------2------------------|
|--------------------------------------------------------------------|


Gtr 3
play twice
|----------------------------7-9-----------7-9-10--9b10----7h9h10p9-----9b10b9p=7--|
|-10b12--10b12---------10b12-----10-7-9-10-----------------------------------------|
|----------------------------------------------------------------------------------|
|----------------------------------------------------------------------------------|
|----------------------------------------------------------------------------------|
|----------------------------------------------------------------------------------|


Gtr 3
|-9----|
|------|
|------|
|------|
|------|
|------|


Both Gtrs
|------|
|------|
|-6----|
|-0----|
|-4----|
|------|


Both Gtrs
play 3 times
       PM-------------|      PM-------------|      PM-----------------------------|
|---------------------------------------------------------------------------------|
|---------------------------------------------------------------------------------|
|---------------------------------------------------------------------------------|
|-------------------------------------------------------------------8-8-----------|
|-8S7-------------------5S3-------------------8S7-------------------6-6--8-8------|
|-6S5--0-0-0-0--0-0-0-0-3S1--0-0-0-0--0-0-0-0-6S5--0-0-0-0--0-0-0-0------6-6------|


       PM-------------|      PM-------------|      PM-------------------------------|
|-----------------------------------------------------------------------------------|
|-----------------------------------------------------------------------------------|
|-----------------------------------------------------------------------------------|
|-------------------------------------------------------------------8-8--10-10------|
|-8S7-------------------5S3-------------------8S7-------------------6-6---8--8------|
|-6S5--0-0-0-0--0-0-0-0-3S1--0-0-0-0--0-0-0-0-6S5--0-0-0-0--0-0-0-0-----------------|


Gtr 1, Gtr 2 joins in
  PM|   PM|   PM|   PM|   PM|     PM|   PM|   PM|
|--------------------------------------------------------------------|
|--------------------------------------------------------------------|
|--------------------------------------------------------------------|
|--------------------------------------------------------------------|
|-----5-----5-----5-----5-----8S7-----5-----5-------5-4-0-3-2---1----|
|-0-0-3-0-0-3-0-0-3-0-0-3-0-0-6S5-0-0-3-0-0-3-0-0-3-----------3------|


Both Gtrs
  PM|   PM|   PM|   PM|   PM|     PM|   PM|   PM|
|--------------------------------------------------------------------|
|--------------------------------------------------------------------|
|--------------------------------------------------------------------|
|--------------------------------------------------------------------|
|-----5-----5-----5-----5-----8S7-----5-----5-------5-4-0-3-2---1----|
|-0-0-3-0-0-3-0-0-3-0-0-3-0-0-6S5-0-0-3-0-0-3-0-0-3-----------3------|


  PM|   PM|   PM|   PM-|    PM|     PM|   PM|   PM----------------------|
|-----------------------------------------------------------------------|
|-----------------------------------------------------------------------|
|-----------------------------------------------------------------------|
|-----------------------------------------------------------------------|
|-----5-----5-----5-------5-----8S7-----5-----5-------5-4-0-3-2---1-----|
|-0-0-3-0-0-3-0-0-3-00-0--3-0-0-6S5-0-0-3-0-0-3-0-0-3-----------3-------|


  PM|   PM|   PM|   PM|   PM|     PM|   PM|   PM|   PM|   PM|
|--------------------------------------------------------------------|
|--------------------------------------------------------------------|
|--------------------------------------------------------------------|
|--------------------------------------------------------------------|
|-----5-----5-----5-----5-----8S7-----5-----5-----5-----5-----8S7----|
|-0-0-3-0-0-3-0-0-3-0-0-3-0-0-6S5-0-0-3-0-0-3-0-0-3-0-0-3-0-0-6S5----|


  PM|   PM|   PM|   PM--|   PM|         PM      PM
|--------------------------------------------------------|
|--------------------------------------------------------|
|--------------------------------------------------------|
|-------------------------------------------------3-3----|
|-----5-----5-----5-------5-----8S7-5p4-0-[3]p2---1-1----|
|-0-0-3-0-0-3-0-0-3-00-0--3-0-0-6S5-------------3--------|


Both Gtrs
  PM-----------------|
|--------------------|
|--------------------|
|--------------------|
|--------------------|
|--------------------|
|-\-\-\-\-\-\-\-\----|


Both Gtrs
play twice
  PM------------------------------------------------------------|
|---------------------------------------------------------------|
|---------------------------------------------------------------|
|----------------------------------------------------2----------|
|----------------------------------------------------2----------|
|----------------------------------------------------0---4------|
|-0--3-0-0-0-3-0-0-0-3-0-0-0-3--0--3-0-0-0-3-0-3-0-3-----2------|


  PM------------------------------------------------------------|
|---------------------------------------------------------------|
|---------------------------------------------------------------|
|----------------------------------------------------2----------|
|----------------------------------------------------2---5------|
|----------------------------------------------------0---3------|
|-0--3-0-0-0-3-0-0-0-3-0-0-0-3--0--3-0-0-0-3-0-3-0-3------------|


Gtr 3
play twice
      PM|     PM|                      PM       PM      PM
|----------------------------------------------------------------|
|----------------------------------12----12S10----10S8----8S7----|
|-7h9-9-9-7h9-9-9-7h9-9-[9]--------------------12------11--------|
|----------------------------12h14----14-------------------------|
|----------------------------------------------------------------|
|----------------------------------------------------------------|


      PM|     PM|
|----------------------------------12-------14-------15-----------------|
|-----------------------------------------------------------------------|
|-7h9-9-9-7h9-9-9-7h9-9-9----11S12----12S14----14S16----16\---11--12----|
|-----------------------------------------------------------------------|
|-----------------------------------------------------------------------|
|-----------------------------------------------------------------------|


Gtr 4
play twice
         PM|         PM|                           PM       PM       PM
|-------------------------------------------------------------------------------|
|----------------------------------------------15----15S13----13S12----12S10----|
|-11h12-12-12-11h12-12-12-11h12-12-[12]--------------------14-------12----------|
|----------------------------------------16h17----17----------------------------|
|-------------------------------------------------------------------------------|
|-------------------------------------------------------------------------------|


         PM|         PM|
|----------------------------------------|
|----------------------------------------|
|-11h12-12-12-11h12-12-12-11h12-12-[12]--|
|----------------------------------------|
|----------------------------------------|
|----------------------------------------|


Both Gtrs
  PM--|   PM|   PM----|   PM|   PM---------------------|
|------------------------------------------------------|
|------------------------------------------------------|
|-------0-----0---------0-----0---------3-----3--------|
|-----4---4-----4-----4---4-----4-----7---7------------|
|---2-------2-------2-------2-------5-------5---5------|
|-0---------------0---------------3-------------3------|


  PM--|     PM|    PM----|     PM|    PM----|     PM---------|
|------------------------------------------------------------|
|------------------------------------------------------------|
|--------7------7-----------7------7----------5-----5--------|
|-----11---11-----11-----11---11-----11-----9---9-----2------|
|---9---------9--------9---------9--------7-------7---0------|
|-7------------------7------------------5--------------------|


Gtr 3
|-------------------------------------------------------13b15----|
|-7h8p7--------------8p7---7h8-8---10h11p10----------------------|
|-------7---7-7-7h9------7-7h9-9------------10----10-10----------|
|---------9------------------------------------12----------------|
|----------------------------------------------------------------|
|----------------------------------------------------------------|


|-------------------------------------------------------|
|-2h3p2--------------3p2---2h3-3---0h1p0----------------|
|-------2---2-2-2h4------2-2h4-4---------0---0-0-0h2----|
|---------4--------------------------------2------------|
|-------------------------------------------------------|
|-------------------------------------------------------|


Gtr 1
play twice
|---0-----------------0---------3----|
|-----6-------6-----6---6-----3------|
|-------5---5-----5---------3--------|
|-0-------8-----7---------5----------|
|------------------------------------|
|------------------------------------|


Repeat Verse


Gtr 1
|---0-----0---------0-----0----------|
|-----6-----6---6-----6-----6---6----|
|-------5-----5---------5-----5------|
|-0---------------8------------------|
|------------------------------------|
|------------------------------------|


|---0-----0---------0-----0----------|
|-----6-----6---6-----6-----6--------|
|-------5-----5---------5-----5------|
|-0---------------8------------------|
|------------------------------------|
|------------------------------------|


Both Gtrs
|---------------------------------------------------------0----------|
|-------------------------0---0---------0-------0-------0---0--------|
|-----6-------6-------6-----6---6-----6-------6-------6-------6------|
|---0---0---0---0---0---0-----------0-------0-------0-----------0----|
|-4-------4-------4---------------2-------2-------2------------------|
|--------------------------------------------------------------------|


|---------------------------------------------------------0----------|
|-------------------------0---0---------0-------0-------0---0--------|
|-----6-------6-------6-----6---6-----6-------6-------6-------6------|
|---0---0---0---0---0---0-----------0-------0-------0----------------|
|-4-------4-------4---------------2-------2-------2-------------4----|
|--------------------------------------------------------------------|


play twice
|---------------------------------------------------------0----------|
|-------------------------0---0-------------------------0---0--------|
|-----6-------6-------6-----6---------6-------6-------6-------0------|
|---0-------0-------0---0-----------0-------0-------0----------------|
|-4-----4-4-----4-4-------------2-2-----2-2-----2-2-------------4----|
|--------------------------------------------------------------------|


play to fade
|---------------------------------------------------------0----------|
|-------------------------0---0---------0-------0-------0---0--------|
|-----6-------6-------6-----6---6-----6-------6-------6-------6------|
|---0---0---0---0---0---0-----------0-------0-------0-----------0----|
|-4-------4-------4---------------2-------2-------2------------------|
|--------------------------------------------------------------------|


Tablature Legend
----------------
 h   - hammer-on
 p   - pull-off
 b   - bend
 pb  - pre-bend
 r   - bend release (if no number after the r, then release immediately)
 /\  - slide into or out of (from/to "nowhere")
 s   - legato slide
 S   - shift slide
  - natural harmonic
[n]  - artificial harmonic
n(n) - tapped harmonic
 ~   - vibrato
 tr  - trill
 T   - tap
 TP  - trem. picking
 PM  - palm muting
\n/  - tremolo bar dip; n = amount to dip
 \n  - tremolo bar down
 n/  - tremolo bar up
/n\  - tremolo bar inverted dip
 =   - hold bend; also acts as connecting device for hammers/pulls
 <>  - volume swell (louder/softer)
 x   - on rhythm slash represents muted slash
 o   - on rhythm slash represents single note slash

Misc Legend
-----------
 |  - bar
||  - double bar
||o - repeat start
o|| - repeat end
*|  - double bar (ending)
 :  - bar (freetime)
 $  - Segno
 &  - Coda
Tempo markers -  = BPM(8/16=s8/s16), where s8 = swing 8ths, s16 = swing 16ths
Добавлено: 13.06.2012
Другие материалы по этой песне:

Страница создана 21.02.2012
http://primanota.ru/annihilator/never-neverland-chords.htm
Привет, Гость.
Предлагаем пройти революционный курс по гитаре.
Подарок от PrimaNota.Ru, забирай!