PrimaNota.ru - самый крупный в мире бесплатный архив песенных текстов, аккордов, табулатур и нот


Annihilator - Ultraparanoia - текст песни, таба, видео

Регистрация Запомнить меня
Войти через:  Facebook Google Twitter Vk Yandex Mail.ru

Annihilator - Ultraparanoia - текст песни, таба, видео

Печатать
Просмотров: 213
Annihilator - Ultraparanoia

tabbed by ol753
www.annihilatormetal.com
ol753_357lo@yahoo.co.uk

Tuning - E A D G B E


Gtr 1
    PM|   PM    PM--|     PM        PM|   PM    PM|
|------------------------------------------------------------------|
|------------------------------------------------------------------|
|------------------------------------------------------------------|
|---------------------------7-7-------------------------0------0---|
|-2-----5---5S7-------8S7---5-5-7-2-----5---5S7-------1------3-----|
|-0-0-0-3-0-3S5-0-0-0-6S5-0-----5-0-0-0-3-0-3S5-0-0-3------5-------|


    PM|   PM    PM--|     PM        PM|   PM    PM|
|----------------------------------------------------------------------|
|----------------------------------------------------------------------|
|----------------------------------------------------------------------|
|---------------------------7-7----------------------------------------|
|-2-----5---5S7-------8S7---5-5-7-2-----5---7S9-----10-10-10--8-8-8----|
|-0-0-0-3-0-3S5-0-0-0-6S5-0-----5-0-0-0-3-0-5S7-0-0--8--8--8--6-6-6----|


Both Gtrs
    PM|   PM    PM--|     PM        PM|   PM    PM|
|------------------------------------------------------------------|
|------------------------------------------------------------------|
|------------------------------------------------------------------|
|---------------------------7-7-------------------------0------0---|
|-2-----5---5S7-------8S7---5-5-7-2-----5---5S7-------1------3-----|
|-0-0-0-3-0-3S5-0-0-0-6S5-0-----5-0-0-0-3-0-3S5-0-0-3------5-------|


    PM|   PM    PM--|     PM        PM|   PM    PM|
|-------------------------------------------------------------------------|
|-------------------------------------------------------------------------|
|-------------------------------------------------------------------------|
|---------------------------7-7-------------------------------------------|
|-2-----5---5S7-------8S7---5-5-7-2-----5---7S9-----10-10-10-10--8-8-8----|
|-0-0-0-3-0-3S5-0-0-0-6S5-0-----5-0-0-0-3-0-5S7-0-0--8--8--8--8--6-6-6----|


Both Gtrs
    PM|   PM    PM--------------|   PM|   PM    PM|
|-------------------------------------------------------------------|
|-------------------------------------------------------------------|
|-------------------------------------------------------------------|
|-------------------------------------------------------0------0----|
|-2-----5---5S7-------------------2-----5---5S7-------1------3------|
|-0-0-0-3-0-3S5-0-0-0-0-0-0-0-0-0-0-0-0-3-0-3S5-0-0-3------5--------|


    PM|   PM    PM--------------|   PM|   PM    PM|
|----------------------------------------------------------------------|
|----------------------------------------------------------------------|
|----------------------------------------------------------------------|
|----------------------------------------------------------------------|
|-2-----5---5S7-------------------2-----5---5S7-----10-10-10--8-8-8----|
|-0-0-0-3-0-3S5-0-0-0-0-0-0-0-0-0-0-0-0-3-0-3S5-0-0--8--8--8--6-6-6----|


Gtr 3
|--------------12-----------------------|
|-15b17-----------15p12-----------------|
|-----------------------14b15--14b15----|
|---------------------------------------|
|---------------------------------------|
|---------------------------------------|


|--------------12----------------------------|
|-15b17-----------15p12-------12-15----------|
|-----------------------14b16-------15b16----|
|--------------------------------------------|
|--------------------------------------------|
|--------------------------------------------|


Verse
Both Gtrs
play 4 times
    PM|   PM  PM    PM----------|   PM|   PM  PM
|------------------------------------------------------------------------|
|------------------------------------------------------------------------|
|------------------------------------------------------------------------|
|-------8---8---7h8---------------------8---8---7h8-10-10-10-10-8-8-8----|
|-2-----7---7---7-----------------------7---7---7----7--7--7--7-7-7-7----|
|-0-0-0---0---0-----0-0-0-0-0-0-0-0-0-0---0---0--------------------------|


Chorus
Both Gtrs
    PM|   PM    PM--|     PM        PM|   PM    PM|
|------------------------------------------------------------------|
|------------------------------------------------------------------|
|------------------------------------------------------------------|
|---------------------------7-7-------------------------0------0---|
|-2-----5---5S7-------8S7---5-5-7-2-----5---5S7-------1------3-----|
|-0-0-0-3-0-3S5-0-0-0-6S5-0-----5-0-0-0-3-0-3S5-0-0-3------5-------|


    PM|   PM    PM--|     PM        PM|   PM    PM|
|----------------------------------------------------------------------|
|----------------------------------------------------------------------|
|----------------------------------------------------------------------|
|---------------------------7-7----------------------------------------|
|-2-----5---5S7-------8S7---5-5-7-2-----5---5S7-----10-10-10--8-8-8----|
|-0-0-0-3-0-3S5-0-0-0-6S5-0-----5-0-0-0-3-0-3S5-0-0--8--8--8--6-6-6----|


Repeat Verse


Chorus
Both Gtrs
    PM|   PM    PM--|     PM        PM|   PM    PM|
|------------------------------------------------------------------|
|------------------------------------------------------------------|
|------------------------------------------------------------------|
|---------------------------7-7-------------------------0------0---|
|-2-----5---5S7-------8S7---5-5-7-2-----5---5S7-------1------3-----|
|-0-0-0-3-0-3S5-0-0-0-6S5-0-----5-0-0-0-3-0-3S5-0-0-3------5-------|


    PM|   PM    PM--|     PM        PM|   PM    PM|
|-------------------------------------------------------------------------|
|-------------------------------------------------------------------------|
|-------------------------------------------------------------------------|
|---------------------------7-7-------------------------------------------|
|-2-----5---5S7-------8S7---5-5-7-2-----5---5S7-----10-10-10-10--8-8-8----|
|-0-0-0-3-0-3S5-0-0-0-6S5-0-----5-0-0-0-3-0-3S5-0-0--8--8--8--8--6-6-6----|


    PM|   PM    PM--|     PM        PM|   PM    PM|
|------------------------------------------------------------------|
|------------------------------------------------------------------|
|------------------------------------------------------------------|
|---------------------------7-7-------------------------0------0---|
|-2-----5---5S7-------8S7---5-5-7-2-----5---5S7-------1------3-----|
|-0-0-0-3-0-3S5-0-0-0-6S5-0-----5-0-0-0-3-0-3S5-0-0-3------5-------|


    PM|   PM    PM--|     PM        PM|   PM    PM|  PM----------------------------|
|-------------------------------------------------------------------------------------|
|-------------------------------------------------------------------------------------|
|-------------------------------------------------------------------------------------|
|---------------------------7-7-------------------------------------------------------|
|-2-----5---5S7-------8S7---5-5-7-2-----5---5S7---------------------------------------|
|-0-0-0-3-0-3S5-0-0-0-6S5-0-----5-0-0-0-3-0-3S5-0-0--8-8-8-8-8-8-8-8-6-6-6-6-6-6-6-6--|


Both Gtrs
play twice
  PM------------------------------------------------------------|
|--------------------------------------------------------------------|
|--------------------------------------------------------------------|
|--------------------------------------------------------------------|
|--------------------------------------------------------------------|
|--------------------------------------------------------------------|
|-6-0-6-0-0-6-0-0-6-0-6-0-0-6-0-0-6-0-6-0-0-6-0-0-6-0-6-0-0-6-0-0----|


Gtr 1
play 4 times
  PM------------------------------------------------------------|
|--------------------------------------------------------------------|
|--------------------------------------------------------------------|
|--------------------------------------------------------------------|
|--------------------------------------------------------------------|
|--------------------------------------------------------------------|
|-6-0-6-0-0-6-0-0-6-0-6-0-0-6-0-0-6-0-6-0-0-6-0-0-6-0-6-0-0-6-0-0----|


Gtr 2
play 4 times
                    PM----------------------------|
|------------------------------------------------------|
|------------------------------------------------------|
|------------------------------------------------------|
|------------------------------------------------------|
|-3--------6-------------------------------------------|
|-1--------4--------6-0-6-0-0-6-0-0-6-0-6-0-0-6-0-0----|


Both Gtrs
  PM------------------------------------------------------------|
|--------------------------------------------------------------------|
|--------------------------------------------------------------------|
|--------------------------------------------------------------------|
|--------------------------------------------------------------------|
|--------------------------------------------------------------------|
|-6-0-6-0-0-6-0-0-6-0-6-0-0-6-0-0-6-0-6-0-0-6-0-0-6-0-6-0-0-6-0-0----|


  PM------------|
|-------------------------------------------|
|-------------------------------------------|
|-------------------------------------------|
|--------------------------------8--7--6----|
|-----------------8--8--7-8---6-------------|
|-6-0-6-0-0-6-0-0-6--6--0-6-----------------|


Both Gtrs
play twice, Gtr 3 Lead (to be added)
    PM--------------------------|   PM--------|
|------------------------------------------------------------------------|
|------------------------------------------------------------------------|
|------------------------------------------------------------------------|
|-----------------------------------------------7-8-10-10-10-10-8-8-8----|
|-2-------------------------------2-------------7-7--7--7--7--7-7-7-7----|
|-0-0-0-0-0-0-0-0-0-0-0-0-0-0-0-0-0-0-0-0-0-0-0--------------------------|


Both Gtrs
    PM|   PM    PM--------------|   PM|   PM    PM|
|-------------------------------------------------------------------|
|-------------------------------------------------------------------|
|-------------------------------------------------------------------|
|-------------------------------------------------------0------0----|
|-2-----5---5S7-------------------2-----5---5S7-------1------3------|
|-0-0-0-3-0-3S5-0-0-0-0-0-0-0-0-0-0-0-0-3-0-3S5-0-0-3------5--------|


    PM|   PM    PM--------------|   PM|   PM    PM|
|-----------------------------------------------------------------------|
|-----------------------------------------------------------------------|
|-----------------------------------------------------------------------|
|-----------------------------------------------------------------------|
|-2-----5---5S7-------------------2-----5---5S7-----10-10-10-10-8-8-8---|
|-0-0-0-3-0-3S5-0-0-0-0-0-0-0-0-0-0-0-0-3-0-3S5-0-0--8--8--8--8-6-6-6---|


    PM|   PM    PM--------------|   PM|   PM    PM|
|-------------------------------------------------------------------|
|-------------------------------------------------------------------|
|-------------------------------------------------------------------|
|-------------------------------------------------------0------0----|
|-2-----5---5S7-------------------2-----5---5S7-------1------3------|
|-0-0-0-3-0-3S5-0-0-0-0-0-0-0-0-0-0-0-0-3-0-3S5-0-0-3------5--------|


    PM|   PM    PM--------------|   PM|   PM    PM|
|-------------------------------------------------------------------------|
|-------------------------------------------------------------------------|
|-------------------------------------------------------------------------|
|-------------------------------------------------------------------------|
|-2-----5---5S7-------------------2-----5---5S7-----10-10-10-10-8-8-8-----|
|-0-0-0-3-0-3S5-0-0-0-0-0-0-0-0-0-0-0-0-3-0-3S5-0-0--8--8--8--8-6-6-6-0---|


Both Gtrs
play twice
  PM------------------------------------------------------------|
|--------------------------------------------------------------------|
|--------------------------------------------------------------------|
|--------------------------------------------------------------------|
|--------------------------------------------------------------------|
|--------------------------------------------------------------------|
|-6-0-6-0-0-6-0-0-6-0-6-0-0-6-0-0-6-0-6-0-0-6-0-0-6-0-6-0-0-6-0-0----|


Gtr 1
play twice
  PM------------------------------------------------------------|
|--------------------------------------------------------------------|
|--------------------------------------------------------------------|
|--------------------------------------------------------------------|
|--------------------------------------------------------------------|
|--------------------------------------------------------------------|
|-6-0-6-0-0-6-0-0-6-0-6-0-0-6-0-0-6-0-6-0-0-6-0-0-6-0-6-0-0-6-0-0----|


Gtr 2
play twice
                    PM----------------------------|
|------------------------------------------------------|
|------------------------------------------------------|
|------------------------------------------------------|
|------------------------------------------------------|
|-3--------6-------------------------------------------|
|-1--------4--------6-0-6-0-0-6-0-0-6-0-6-0-0-6-0-0----|


Both Gtrs
  PM------------------------------------------------------------|
|--------------------------------------------------------------------|
|--------------------------------------------------------------------|
|--------------------------------------------------------------------|
|--------------------------------------------------------------------|
|--------------------------------------------------------------------|
|-6-0-6-0-0-6-0-0-6-0-6-0-0-6-0-0-6-0-6-0-0-6-0-0-6-0-6-0-0-6-0-0----|


|------------------------------|
|------------------------------|
|------------------------------|
|------------------------------|
|-----------------8--8--7-8----|
|-6-0-6-0-0-6-0-0-6--6--0-6----|


Both Gtrs
                                            PM-------|        PM
|-------------------------------------------------------------------|
|-------------------------------------------------------------------|
|-------------------------------------------------------------------|
|---------------------------7-7---------------------------------3-3-|
|-2-----5---5S7-------8S7---5-5-7-----8-7---------5--4--3--2----1-1-|
|-0-0-0-3-0-3S5-0-0-0-6S5-0-----5-0-6-----5-0-3-4-------------0-----|


Chorus
Both Gtrs
play 4 times
    PM|   PM    PM--|     PM        PM|   PM    PM|
|------------------------------------------------------------------|
|------------------------------------------------------------------|
|------------------------------------------------------------------|
|---------------------------7-7-------------------------0------0---|
|-2-----5---5S7-------8S7---5-5-7-2-----5---5S7-------1------3-----|
|-0-0-0-3-0-3S5-0-0-0-6S5-0-----5-0-0-0-3-0-3S5-0-0-3------5-------|


    PM|   PM    PM--|     PM        PM|   PM    PM|
|-------------------------------------------------------------------------|
|-------------------------------------------------------------------------|
|-------------------------------------------------------------------------|
|---------------------------7-7-------------------------------------------|
|-2-----5---5S7-------8S7---5-5-7-2-----5---5S7-----10-10-10-10--8-8-8----|
|-0-0-0-3-0-3S5-0-0-0-6S5-0-----5-0-0-0-3-0-3S5-0-0--8--8--8--8--6-6-6----|


Gtr 3
3rd time
play twice
|--------------12-----------------------|
|-15b17-----------15p12-----------------|
|-----------------------14b15--14b15----|
|---------------------------------------|
|---------------------------------------|
|---------------------------------------|


|--------------12----------------------------|
|-15b17-----------15p12-------12-15----------|
|-----------------------14b16-------15b16----|
|--------------------------------------------|
|--------------------------------------------|
|--------------------------------------------|


Both Gtrs
play twice
  PM------------------------------------------------------------|
|--------------------------------------------------------------------|
|--------------------------------------------------------------------|
|--------------------------------------------------------------------|
|--------------------------------------------------------------------|
|--------------------------------------------------------------------|
|-6-0-6-0-0-6-0-0-6-0-6-0-0-6-0-0-6-0-6-0-0-6-0-0-6-0-6-0-0-6-0-0----|


Gtr 1
play 4 times
  PM------------------------------------------------------------|
|--------------------------------------------------------------------|
|--------------------------------------------------------------------|
|--------------------------------------------------------------------|
|--------------------------------------------------------------------|
|--------------------------------------------------------------------|
|-6-0-6-0-0-6-0-0-6-0-6-0-0-6-0-0-6-0-6-0-0-6-0-0-6-0-6-0-0-6-0-0----|


Gtr 2
play 4 times
                    PM----------------------------|
|------------------------------------------------------|
|------------------------------------------------------|
|------------------------------------------------------|
|------------------------------------------------------|
|-3--------6-------------------------------------------|
|-1--------4--------6-0-6-0-0-6-0-0-6-0-6-0-0-6-0-0----|


Both Gtrs
repeats to fade
  PM------------------------------------------------------------|
|--------------------------------------------------------------------|
|--------------------------------------------------------------------|
|--------------------------------------------------------------------|
|--------------------------------------------------------------------|
|--------------------------------------------------------------------|
|-6-0-6-0-0-6-0-0-6-0-6-0-0-6-0-0-6-0-6-0-0-6-0-0-6-0-6-0-0-6-0-0----|


Tablature Legend
----------------
 h   - hammer-on
 p   - pull-off
 b   - bend
 pb  - pre-bend
 r   - bend release (if no number after the r, then release immediately)
 /\  - slide into or out of (from/to "nowhere")
 s   - legato slide
 S   - shift slide
  - natural harmonic
[n]  - artificial harmonic
n(n) - tapped harmonic
 ~   - vibrato
 tr  - trill
 T   - tap
 TP  - trem. picking
 PM  - palm muting
\n/  - tremolo bar dip; n = amount to dip
 \n  - tremolo bar down
 n/  - tremolo bar up
/n\  - tremolo bar inverted dip
 =   - hold bend; also acts as connecting device for hammers/pulls
 <>  - volume swell (louder/softer)
 x   - on rhythm slash represents muted slash
 o   - on rhythm slash represents single note slash

Misc Legend
-----------
 |  - bar
||  - double bar
||o - repeat start
o|| - repeat end
*|  - double bar (ending)
 :  - bar (freetime)
 $  - Segno
 &  - Coda
Tempo markers -  = BPM(8/16=s8/s16), where s8 = swing 8ths, s16 = swing 16ths
Добавлено: 28.03.2012
Другие материалы по этой песне:
  • Аккорды и текст

Страница создана 28.03.2012
http://primanota.ru/annihilator/ultraparanoia-chords.htm
Привет, Гость.
Предлагаем пройти революционный курс по гитаре.
Подарок от PrimaNota.Ru, забирай!