PrimaNota.ru - самый крупный в мире бесплатный архив песенных текстов, аккордов, табулатур и нот


Annihilator - Wicked Mystic - текст песни, таба, видео

Регистрация Запомнить меня
Войти через:  Facebook Google Twitter Vk Yandex Mail.ru

Annihilator - Wicked Mystic - текст песни, таба, видео

Печатать
Просмотров: 153
Annihilator - Wicked Mystic

tabbed by ol753
www.annihilatormetal.com
ol753_357lo@yahoo.co.uk

Tuning - Drop 1/4 of a step

Both Gtrs
play twice
      PM--------|     PM--------|     PM--------------------------|
|-----------------------------------------------------------------|
|-----------------------------------------------------------------|
|-----------------------------------------------------------------|
|-----------------------------------------------------3--3--5-----|
|-4S5-------------4S5-------------4S5-----------------1--1--3-----|
|-2S3-0-0-0-0-0-0-2S3-0-0-0-0-0-0-2S3-0-0-0-0-0-0-0-0-------------|


      PM--------|     PM--------|     PM----------------------------|
|-------------------------------------------------------------------|
|-------------------------------------------------------------------|
|-------------------------------------------------------------------|
|-----------------------------------------------------3--3--4--5----|
|-4S5-------------4S5-------------4S5-----------------1--1--2--3----|
|-2S3-0-0-0-0-0-0-2S3-0-0-0-0-0-0-2S3-0-0-0-0-0-0-0-0---------------|


Gtr 3
|----------------------------------------------------------------------|
|-13b15--------12h14h15p14p12----12------------------------------------|
|-----------------------------15----15p14p12----14----[12]b12.5--------|
|--------------------------------------------12----14------------12----|
|----------------------------------------------------------------------|
|----------------------------------------------------------------------|


|-----------------------------------------/-3-\\\\--7-8-10-8-7-----------------------------|
|----------------------------7---8-7-10-8-7-8-10------------10-8-7-------------------------|
|-12S11----11S9----9S7---7-9---9-----------------------------------9-7-5-------------------|
|-------12------10-----9-------------------------------------------------9-7-5---| /3\\\\--| triplets
|------------------------------------------------------------------------------9-----------|
|------------------------------------------------------------------------------------------|

* pick scrape
|---------------------------|
|---------------------------|
|------0\\\\n---------------|
|---------------------------|
|---------------0\\\\n------|
|--*------------------------|


Both Gtrs
     PM--------|     PM--------|     PM---------------------------|
|-----------------------------------------------------------------|
|-----------------------------------------------------------------|
|-----------------------------------------------------------------|
|-----------------------------------------------------3--3--5-----|
|-4S5-------------4S5-------------4S5-----------------1--1--3-----|
|-2S3-0-0-0-0-0-0-2S3-0-0-0-0-0-0-2S3-0-0-0-0-0-0-0-0-------------|


Both Gtrs
     PM----|        PM--------|    PM----|     PM|     PM---------|
|-----------------------------------------------------------------|
|-----------------------------------------------------------------|
|-----------------------------------------------------------------|
|-4----------3S4-3--------------7----------6S7--------------------|
|-2----------1S2-1--------------5----------4S5-------------7------|
|----0-0-0-0--------0-0-0-0-0-0----0-0-0-0-----0-0-1/--5-6--------|


     PM----|        PM--------|    PM----|     PM-----------------|
|-----------------------------------------------------------------|
|-----------------------------------------------------------------|
|-----------------------------------------------------------------|
|-4----------3S4-3--------------7----------6S7--------------------|
|-2----------1S2-1--------------5----------4S5---------7----------|
|----0-0-0-0--------0-0-0-0-0-0----0-0-0-0-----0-0-1/----6-5------|


     PM----|        PM--------|    PM----|     PM|     PM---------|
|-----------------------------------------------------------------|
|-----------------------------------------------------------------|
|-----------------------------------------------------------------|
|-4----------3S4-3--------------7----------6S7--------------------|
|-2----------1S2-1--------------5----------4S5-------------7------|
|----0-0-0-0--------0-0-0-0-0-0----0-0-0-0-----0-0-1/--5-6--------|


Both Gtrs
  PM-----------------------------------------------------------------|
|--------------------------------------------------------------------|
|--------------------------------------------------------------------|
|--------------------------------------------------------------------|
|--------------------------------------------------------------------|
|---------------------------------------------------------7----------|
|-6-5-0-0-5-3-0-0-3-2-0-0-0-0-0-0-6-5-0-0-5-3-0-0-3-2-0-0---6-5------|


Verse
Both Gtrs
play twice
  PM---------------------------------------------------------------|
|------------------------------------------------------------------|
|------------------------------------------------------------------|
|------------------------------------------------------------------|
|------------------------------------------------------------------|
|---------------------------------------------------------7S8------|
|-3-2-0-0-5-3-0-0-6-5-0-0-0-0-0-0-3-2-0-0-5-3-0-0-6-5-0-0-5S6------|


  PM---------------------------------------------------------------|
|------------------------------------------------------------------|
|------------------------------------------------------------------|
|------------------------------------------------------------------|
|------------------------------------------------------------------|
|---------------------------------------------------------7S8------|
|-8-0-0-8-0-0-0-0-8-0-0-8-0-0-0-0-8-0-0-8-0-0-0-0-8-0-0-0-5S6------|


Chorus
Both Gtrs
*Artificial harmonics slide
      PM--------|     PM-----------------------|
|----------------------------------------------|
|----------------------------------------------|
|----------------------------------------------|
|-9S7------------------------------------------|
|-7S5-------------8S7-------------10S8---------|
|-----0-0-0-0-0-0-6S5-0-0-0-0-0-0--8S6--*------|


      PM--------|     PM------------------------------------------|
|-----------------------------------------------------------------|
|-----------------------------------------------------------------|
|-----------------------------------------------------------------|
|-9S7-------------------------------------------------------------|
|-7S5-------------8S7-------------10S9-----------2-3-5-3-2--------|
|-----0-0-0-0-0-0-6S5-0-0-0-0-0-0--8S7---0-2-3-5-----------5------|


      PM--------|     PM-----------------------|
|----------------------------------------------|
|----------------------------------------------|
|----------------------------------------------|
|-9S7------------------------------------------|
|-7S5-------------8S7-------------10S8---------|
|-----0-0-0-0-0-0-6S5-0-0-0-0-0-0--8S6--*------|

      PM--------|     PM-----------------------------------------------|
|----------------------------------------------------------------------|
|----------------------------------------------------------------------|
|----------------------------------------------------------------------|
|-9S7------------------------------------------------------------------|
|-7S5-------------8S7-------------10S9-----------2-3-5-3-2----8-8-8----|
|-----0-0-0-0-0-0-6S5-0-0-0-0-0-0--8S7---0-2-3-5-----------5--6-6-6----|


Both Gtrs
      PM--------|     PM--------|     PM--------------------------|
|-----------------------------------------------------------------|
|-----------------------------------------------------------------|
|-----------------------------------------------------------------|
|-----------------------------------------------------3--3--5-----|
|-4S5-------------4S5-------------4S5-----------------1--1--3-----|
|-2S3-0-0-0-0-0-0-2S3-0-0-0-0-0-0-2S3-0-0-0-0-0-0-0-0-------------|


      PM--------|     PM--------|     PM--------------------------|
|-----------------------------------------------------------------|
|-----------------------------------------------------------------|
|-----------------------------------------------------------------|
|-----------------------------------------------------3--3--5-----|
|-4S5-------------4S5-------------4S5-----------------1--1--3-----|
|-2S3-0-0-0-0-0-0-2S3-0-0-0-0-0-0-2S3-0-0-0-0-0-0-0-0-------------|


      PM--------|     PM--------|     PM-------------------------|
|----------------------------------------------------------------|
|----------------------------------------------------------------|
|----------------------------------------------------------------|
|-----------------------------------------------------3----5-----|
|-4S5-------------4S5-------------4S5-----------------1----3-----|
|-2S3-0-0-0-0-0-0-2S3-0-0-0-0-0-0-2S3-0-0-0-0-0-0-0-0------------|


      PM--------|     PM--------|     PM----------------------------|
|-------------------------------------------------------------------|
|-------------------------------------------------------------------|
|-------------------------------------------------------------------|
|-----------------------------------------------------3--3--4--5----|
|-4S5-------------4S5-------------4S5-----------------1--1--2--3----|
|-2S3-0-0-0-0-0-0-2S3-0-0-0-0-0-0-2S3-0-0-0-0-0-0-0-0---------------|


Both Gtrs
     PM----|        PM--------|    PM----|     PM|     PM---------|
|-----------------------------------------------------------------|
|-----------------------------------------------------------------|
|-----------------------------------------------------------------|
|-4----------3S4-3--------------7----------6S7--------------------|
|-2----------1S2-1--------------5----------4S5-------------7------|
|----0-0-0-0--------0-0-0-0-0-0----0-0-0-0-----0-0-1/--5-6--------|


Verse
Both Gtrs
play twice
  PM---------------------------------------------------------------|
|------------------------------------------------------------------|
|------------------------------------------------------------------|
|------------------------------------------------------------------|
|------------------------------------------------------------------|
|---------------------------------------------------------7S8------|
|-3-2-0-0-5-3-0-0-6-5-0-0-0-0-0-0-3-2-0-0-5-3-0---6-5-0---5S6------|


  PM---------------------------------------------------------------|
|------------------------------------------------------------------|
|------------------------------------------------------------------|
|------------------------------------------------------------------|
|------------------------------------------------------------------|
|---------------------------------------------------------7S8------|
|-8-0-0-8-0-0-0-0-8-0-0-8-0-0-0-0-8-0-0-8-0-0-0-0-8-0-0-0-5S6------|


Chorus
Both Gtrs
*Artificial harmonics slide
      PM--------|     PM-----------------------|
|----------------------------------------------|
|----------------------------------------------|
|----------------------------------------------|
|-9S7------------------------------------------|
|-7S5-------------8S7-------------10S8---------|
|-----0-0-0-0-0-0-6S5-0-0-0-0-0-0--8S6--*------|


      PM--------|     PM------------------------------------------|
|-----------------------------------------------------------------|
|-----------------------------------------------------------------|
|-----------------------------------------------------------------|
|-9S7-------------------------------------------------------------|
|-7S5-------------8S7-------------10S9-----------2-3-5-3-2--------|
|-----0-0-0-0-0-0-6S5-0-0-0-0-0-0--8S7---0-2-3-5-----------5------|


      PM--------|     PM-----------------------|
|----------------------------------------------|
|----------------------------------------------|
|----------------------------------------------|
|-9S7------------------------------------------|
|-7S5-------------8S7-------------10S8---------|
|-----0-0-0-0-0-0-6S5-0-0-0-0-0-0--8S6--*------|

      PM--------|     PM-----------------------------------------------|
|----------------------------------------------------------------------|
|----------------------------------------------------------------------|
|----------------------------------------------------------------------|
|-9S7------------------------------------------------------------------|
|-7S5-------------8S7-------------10S9-----------2-3-5-3-2----8-8-8----|
|-----0-0-0-0-0-0-6S5-0-0-0-0-0-0--8S7---0-2-3-5-----------5--6-6-6----|


|----------|
|----------|
|----------|
|----------|
|-8-8-8----|
|-6-6-6----|

  PM--------------------------------|
|-----------------------------------|
|-----------------------------------|
|-----------------------------------|
|-----------------------------------|
|-----------------8-8-8---9-10------|
|-6-5-3-0-6-5-3-0-6-6-6---7--8------|


Both Gtrs, Gtr 3 Lead (to be added)
  PM        PM        PM
|-----------------------------------------|
|--------------------------------4-3-4----|
|----5-3-------5-3-------5-3-----3-3-3----|
|----5-3-------5-3-------5-3--------------|
|-3---------3---------3--------1----------|
|-----------------------------------------|


  PM        PM        PM
|-----------------------------------------|
|-----------------------------------------|
|----5-3-------5-3-------5-3--------------|
|----5-3-------5-3-------5-3--------------|
|-3---------3---------3--------6-6-6-6----|
|------------------------------4-4-4-4----|


  PM        PM        PM
|-----------------------------------------|
|--------------------------------4-3-4----|
|----5-3-------5-3-------5-3-----3-3-3----|
|----5-3-------5-3-------5-3--------------|
|-3---------3---------3--------1----------|
|-----------------------------------------|


  PM        PM        PM
|------------------------------------------------------|
|------------------------------------------------------|
|----5-3-------5-3-------5-3--5------------------------|
|----5-3-------5-3-------5-3--5-----------------8-7----|
|-3---------3---------3---------6-6-6-8-------6-6-5-8--|
|-------------------------------4-4-4-6-------4-----6--|


  PM|        PM|        PM|       PM-------------------|
|------------------------------------------------------|
|------------------------------------------------------|
|-----3-3--------3-3--------3-3------------------------|
|-----3-3--------3-3--------3-3------------------------|
|-3-3--------3-3--------3-3-------5-5-6-6-5-5-4-4------|
|------------------------------------------------------|

  PM|        PM|        PM|
|----------------------------------------------|
|----------------------------------------------|
|-----3-3--------3-3--------3-3----------------|
|-----3-3--------3-3--------3-3--------7-------|
|-3-3--------3-3--------3-3------6--6--5--8----|
|--------------------------------4--4-----6----|


  PM|        PM|        PM|       PM-------------------|
|------------------------------------------------------|
|------------------------------------------------------|
|-----3-3--------3-3--------3-3------------------------|
|-----3-3--------3-3--------3-3------------------------|
|-3-3--------3-3--------3-3-------5-5-6-6-5-5-4-4------|
|------------------------------------------------------|

  PM|        PM|        PM|
|----------------------------------------------|
|----------------------------------------------|
|-----3-3--------3-3--------3-3----------------|
|-----3-3--------3-3--------3-3-----8--7-------|
|-3-3--------3-3--------3-3------6--6--5--8----|
|--------------------------------4--------6----|


Both Gtrs
           PM--------------------------------------|
|--------------------------------------------------|
|--------------------------------------------------|
|-------5-----------------------5------------------|
|----6--5--------------------6--5------------------|
|-5--4-----------------------4---------3-----------|
|-3--------3-3-3-3-3-3-3-3-3-------\\\\---1--------|


           PM------------------------------------|
|------------------------------------------------|
|------------------------------------------------|
|-------5-----------------------5----------------|
|----6--5--------------------6--5----------------|
|-5--4-----------------------4---------3--4------|
|-3--------3-3-3-3-3-3-3-3-3-----------1--2------|

           PM--------------------------------------|
|--------------------------------------------------|
|--------------------------------------------------|
|-------5-----------------------5------------------|
|----6--5--------------------6--5------------------|
|-5--4-----------------------4---------3-----------|
|-3--------3-3-3-3-3-3-3-3-3-------\\\\---1--------|


           PM------------------------------------|
|------------------------------------------------|
|------------------------------------------------|
|-------5-----------------------5----------------|
|----6--5--------------------6--5----------------|
|-5--4-----------------------4---------3--4------|
|-3--------3-3-3-3-3-3-3-3-3-----------1--2------|


Gtr 3
   PM----------------------------------------------------------------------|
|--------------------------------------------------------------------------|
|---------------------------------------------------------------8-8-8------|
|---------------------------------------------------------------8-7-8------|
|-10--10-10-10-10-10--10--10-10-10-10-10--10--10-10-10-10-10--8------------|
|--------------------------------------------------------------------------|
|--------------------------------------------------------------------------|


   PM----------------------------------------------------------------------|
|--------------------------------------------------------------------------|
|-------------------------------------------------------------8-8-8-8------|
|-------------------------------------------------------------8-8-8-8------|
|-10--10-10-10-10-10--10--10-10-10-10-10--10--10-10-10-10-10---------------|
|--------------------------------------------------------------------------|
|--------------------------------------------------------------------------|


   PM----------------------------------------------------------------------|
|--------------------------------------------------------------------------|
|-------------------------------------------------------------8-8-8-6------|
|-------------------------------------------------------------8-8-8-7------|
|-10--10-10-10-10-10--10--10-10-10-10-10--10--10-10-10-10-10---------------|
|--------------------------------------------------------------------------|
|--------------------------------------------------------------------------|


           T                T             T       T       T       T
|-8h11h13-15p13p11p8h10h11-13p11p10p8------------------------------------|
|-------------------------------------11-13p8----------------------------|
|---------------------------------------------10-12p8------------12p8----|
|-----------------------------------------------------10-12p8h10---------|
|------------------------------------------------------------------------|
|------------------------------------------------------------------------|


  PM|
|---------------------------8-----------------------11b13-----11p8-10b11----|
|-------------------------8---11b13=====11pb13r11p8-------------------------|
|-----------------8-10b12---------------------------------------------------|
|------------8-10-----------------------------------------------------------|
|-6---6h8S10----------------------------------------------------------------|
|---8-----------------------------------------------------------------------|

             PM    PM
|-------11----11h13h14p13p11----13----11----11S10-----------------------------------------------------------------|
|-11S13----13----------------13----13----13-------13p11-13p11S8---------11----------------------------------------|
|----------------------------------------------------------------10b12------10pb12==10-10-10pb12r10p8----10----8--|
|-----------------------------------------------------------------------------------------------------10----10----|
|-----------------------------------------------------------------------------------------------------------------|
|-----------------------------------------------------------------------------------------------------------------|


                                                                                    PM
PM   PM|    PM|
|-------------------------------------------------------8--------8----------------------------------------|
|--------8-11-------8-11-------8-11-------8-11--------8---11b13----11p8-11--------------------------------|
|-10b12-------10b12------10b12------10b12------10b12-----------------------11p10p8----10----8------8------|
|----------------------------------------------------------------------------------10----10---10-8---10-8-|
|---------------------------------------------------------------------------------------------------------|
|---------------------------------------------------------------------------------------------------------|


|----------|
|-18b20----|
|----------|
|----------|
|----------|
|----------|


|-22-20-18-20-18-20-18-17--20-18-17-18-17-15-17p15----17----17-15----------------------------------------------------------------------|
|--------------------------------------------------18----18-------17h18-17p15----18p17p15----17p15----15-------------------------------|
|-----------------------------------------------------------------------------18----------18-------18----18p17-18p17p15-17p15----14----|
|-----------------------------------------------------------------------------------------------------------------------------17-------|
|--------------------------------------------------------------------------------------------------------------------------------------|
|--------------------------------------------------------------------------------------------------------------------------------------|


|---------------------------------------------------------------------|
|-/8--9p8-10p9-11p10-12p11-13p12-14p13-15p14-16p15-17p16-18--16b18----|
|---------------------------------------------------------------------|
|---------------------------------------------------------------------|
|---------------------------------------------------------------------|
|---------------------------------------------------------------------|


|-/15h17p15h17p15----15------------------------------------------------------------------------------------------------------------|
|-----------------18----18p15-------18------------------------------------------15h17h18p17p15----17p15----15-------------------15-|
|-----------------------------17b19----17pb19r17p15----17--------------15h17h18----------------18-------18----18p17p15----17-------|
|---------------------------------------------------17----17--14h15h17-------------------------------------------------17----17----|
|----------------------------------------------------------------------------------------------------------------------------------|
|----------------------------------------------------------------------------------------------------------------------------------|


|-18-18b21============18p15----------|
|---------------------------18b20----|
|------------------------------------|
|------------------------------------|
|------------------------------------|
|------------------------------------|


Both Gtrs
play twice
           PM------------------------------------|
|------------------------------------------------|
|------------------------------------------------|
|-------5-----------------------5----------------|
|----6--5--------------------6--5----------------|
|-5--4-----------------------4---------3--4------|
|-3--------3-3-3-3-3-3-3-3-3-----------1--2------|


Gtr 1
     PM----|        PM--------|    PM----|     PM|     PM---------|
|-----------------------------------------------------------------|
|-----------------------------------------------------------------|
|-----------------------------------------------------------------|
|-4----------3S4-3--------------7----------6S7--------------------|
|-2----------1S2-1--------------5----------4S5-------------7------|
|----0-0-0-0--------0-0-0-0-0-0----0-0-0-0-----0-0-1/--5-6--------|


Verse
Both Gtrs
  PM-------------------------------------------------------------------------|
|----------------------------------------------------------------------------|
|----------------------------------------------------------------------------|
|----------------------------------------------------------------------------|
|----------------------------------------------------------------| / 3 \\\\--| triplets
|---------------------------------/-3-\\\\---/-3-\\\\---/-3-\\\\---7S8-------|
|-3-2-0-0-5-3-0-0-6-5-0-0-0-0-0-0-3-2-0-0-5-3-0-0-6-5-0-0-5S6----------------|


  PM---------------------------------------------------------------|
|------------------------------------------------------------------|
|------------------------------------------------------------------|
|------------------------------------------------------------------|
|------------------------------------------------------------------|
|---------------------------------------------------------7S8------|
|-8-0-0-8-0-0-0-0-8-0-0-8-0-0-0-0-8-0-0-8-0-0-0-0-8-0-0-0-5S6------|

  PM---------------------------------------------------------------|
|------------------------------------------------------------------|
|------------------------------------------------------------------|
|------------------------------------------------------------------|
|------------------------------------------------------------------|
|---------------------------------------------------------7S8------|
|-3-2-0-0-5-3-0-0-6-5-0-0-0-0-0-0-3-2-0-0-5-3-0-0-6-5-0-0-5S6------|


  PM---------------------------------------------------------------|
|------------------------------------------------------------------|
|------------------------------------------------------------------|
|------------------------------------------------------------------|
|------------------------------------------------------------------|
|---------------------------------------------------------7S8------|
|-8-0-0-8-0-0-0-0-8-0-0-8-0-0-0-0-8-0-0-8-0-0-0-0-8-0-0-0-5S6------|


Chorus
Both Gtrs
*Artificial harmonics slide
      PM--------|     PM-----------------------|
|----------------------------------------------|
|----------------------------------------------|
|----------------------------------------------|
|-9S7------------------------------------------|
|-7S5-------------8S7-------------10S8---------|
|-----0-0-0-0-0-0-6S5-0-0-0-0-0-0--8S6--*------|

      PM--------|     PM-----------------------------------------------|
|----------------------------------------------------------------------|
|----------------------------------------------------------------------|
|----------------------------------------------------------------------|
|-9S7------------------------------------------------------------------|
|-7S5-------------8S7-------------10S9-----------2-3-5-3-2----8-8-8----|
|-----0-0-0-0-0-0-6S5-0-0-0-0-0-0--8S7---0-2-3-5-----------5--6-6-6----|


Both Gtrs
      PM--------|     PM--------|     PM--------------------------|
|-----------------------------------------------------------------|
|-----------------------------------------------------------------|
|-----------------------------------------------------------------|
|-----------------------------------------------------3--3--5-----|
|-4S5-------------4S5-------------4S5-----------------1--1--3-----|
|-2S3-0-0-0-0-0-0-2S3-0-0-0-0-0-0-2S3-0-0-0-0-0-0-0-0-------------|


      PM--------|     PM--------|     PM--------------------------|
|-----------------------------------------------------------------|
|-----------------------------------------------------------------|
|-----------------------------------------------------------------|
|-----------------------------------------------------3--3--5-----|
|-4S5-------------4S5-------------4S5-----------------1--1--3-----|
|-2S3-0-0-0-0-0-0-2S3-0-0-0-0-0-0-2S3-0-0-0-0-0-0-0-0-------------|


      PM--------|     PM--------|     PM-------------------------|
|----------------------------------------------------------------|
|----------------------------------------------------------------|
|----------------------------------------------------------------|
|-----------------------------------------------------15---17----|
|-4S5-------------4S5-------------4S5-----------------13---15----|
|-2S3-0-0-0-0-0-0-2S3-0-0-0-0-0-0-2S3-0-0-0-0-0-0-0-0------------|


      PM--------|     PM--------|     PM--------------------------|
|-----------------------------------------------------------------|
|-----------------------------------------------------------------|
|-----------------------------------------------------------------|
|-----------------------------------------------------3--3--5-----|
|-4S5-------------4S5-------------4S5-----------------1--1--3-----|
|-2S3-0-0-0-0-0-0-2S3-0-0-0-0-0-0-2S3-0-0-0-0-0-0-0-0-------------|


Both Gtrs
  PM------------|        PM-------------------------|
|---------------------------------------------------|
|---------------------------------------------------|
|---------------------------------------------------|
|---------------------------------------------------|
|-----------------8-8-8------------------8-8-8------|
|-6-5-3-0-6-5-3-0-6-6-6--6-5-3-0-6-5-3-0-6-6-6------|


  PM------------|        PM-------------------------|
|---------------------------------------------------|
|---------------------------------------------------|
|---------------------------------------------------|
|---------------------------------------------------|
|-----------------8-8-8------------------8-8-2------|
|-6-5-3-0-6-5-3-0-6-6-6--6-5-3-0-6-5-3-0-6-6-0------|


Tablature Legend
----------------
 h   - hammer-on
 p   - pull-off
 b   - bend
 pb  - pre-bend
 r   - bend release (if no number after the r, then release immediately)
 /\\\\  - slide into or out of (from/to \\\"nowhere\\\")
 s   - legato slide
 S   - shift slide
  - natural harmonic
[n]  - artificial harmonic
n(n) - tapped harmonic
 ~   - vibrato
 tr  - trill
 T   - tap
 TP  - trem. picking
 PM  - palm muting
\\\\n/  - tremolo bar dip; n = amount to dip
 \\\\n  - tremolo bar down
 n/  - tremolo bar up
/n\\\\  - tremolo bar inverted dip
 =   - hold bend; also acts as connecting device for hammers/pulls
 <>  - volume swell (louder/softer)
 x   - on rhythm slash represents muted slash
 o   - on rhythm slash represents single note slash

Misc Legend
-----------
 |  - bar
||  - double bar
||o - repeat start
o|| - repeat end
*|  - double bar (ending)
 :  - bar (freetime)
 $  - Segno
 &  - Coda
Tempo markers -  = BPM(8/16=s8/s16), where s8 = swing 8ths, s16 = swing 16ths
Добавлено: 14.04.2012
Другие материалы по этой песне:

Страница создана 14.04.2012
http://primanota.ru/annihilator/wicked-mystic-chords.htm
Привет, Гость.
Предлагаем пройти революционный курс по гитаре.
Подарок от PrimaNota.Ru, забирай!