PrimaNota.ru - самый крупный в мире бесплатный архив песенных текстов, аккордов, табулатур и нот


Annihilator - Voices And Victims - текст песни, таба, видео

Регистрация Запомнить меня
Войти через:  Facebook Google Twitter Vk Yandex Mail.ru

Annihilator - Voices And Victims - текст песни, таба, видео

Печатать
Просмотров: 125
Annihilator - Voices And Victims

tabbed by ol753
www.annihilatormetal.com
ol753_357lo@yahoo.co.uk

Tuning - E A D G B E


Both Gtrs
play twice
|----------------------------------------------|
|----------------------------------------------|
|----------------------------------------------|
|-----3--3-5----------3--5------3--3-5---------|
|-5-5-1--1-3-3-5-5-5--1--3--5-5-1--1-3--3-5----|
|-3-3--------1-3-3-3--------3-3---------1-3----|


Both Gtrs, Gtr 3 Lead (to be added)
                                            PM|
|----------------------------------------------------|
|----------------------------------------------------|
|-----------------------------------------------3----|
|-----3--3-5----------3--5------3--3-5----------3----|
|-5-5-1--1-3-3-5-5-5--1--3--5-5-1--1-3--5-5----------|
|-3-3--------1-3-3-3--------3-3---------1-3-3-3------|


|----------------------------------------------|
|----------------------------------------------|
|----------------------------------------------|
|-----3--3-5----------3--5------3--3-5---------|
|-5-5-1--1-3-3-5-5-5--1--3--5-5-1--1-3--3-5----|
|-3-3--------1-3-3-3--------3-3---------1-3----|


Verse
Both Gtrs
play twice
                                            PM|
|----------------------------------------------------|
|----------------------------------------------------|
|-----------------------------------------------3----|
|-----3--3-5----------3--5------3--3-5----------3----|
|-5-5-1--1-3-3-5-5-5--1--3--5-5-1--1-3--5-5----------|
|-3-3--------1-3-3-3--------3-3---------1-3-3-3------|


|----------------------------------------------|
|----------------------------------------------|
|----------------------------------------------|
|-----3--3-5----------3--5------3--3-5---------|
|-5-5-1--1-3-3-5-5-5--1--3--5-5-1--1-3--3-5----|
|-3-3--------1-3-3-3--------3-3---------1-3----|


Chorus
Both Gtrs
       PM         PM  PM|             PM         PM  PM|
|-------------------------------------------------------------|
|-------------------------------------------------------------|
|-------------------------------------------------------------|
|--------5-6-5------------3-------------5-6-5-----------------|
|----1---3S4-3--1---1-----1--1------1---3S4-3--1---1-----5----|
|-/3---3----------3---3-1----3---/3---3----------3---3-1-3----|


       PM         PM  PM|             PM
|------------------------------------------------------------|
|------------------------------------------------------------|
|------------------------------------------------------------|
|--------5S6-5------------3----------------------10-10-10----|
|----1---3S4-3--1---1-----1--1------1---1-3-------8--8--8----|
|-/3---3----------3---3-1----3---/3---3---1------------------|


Both Gtrs, Gtr 3 Lead (to be added)
                                            PM|
|----------------------------------------------------|
|----------------------------------------------------|
|-----------------------------------------------3----|
|-----3--3-5----------3--5------3--3-5----------3----|
|-5-5-1--1-3-3-5-5-5--1--3--5-5-1--1-3--5-5----------|
|-3-3--------1-3-3-3--------3-3---------1-3-3-3------|


|----------------------------------------------|
|----------------------------------------------|
|----------------------------------------------|
|-----3--3-5----------3--5------3--3-5---------|
|-5-5-1--1-3-3-5-5-5--1--3--5-5-1--1-3--3-5----|
|-3-3--------1-3-3-3--------3-3---------1-3----|


Repeat Verse
Repeat Chorus twice


Both Gtrs
play 3 times, Gtr 3 Lead (to be added)
                                            PM|
|----------------------------------------------------|
|----------------------------------------------------|
|-----------------------------------------------3----|
|-----3--3-5----------3--5------3--3-5----------3----|
|-5-5-1--1-3-3-5-5-5--1--3--5-5-1--1-3--5-5----------|
|-3-3--------1-3-3-3--------3-3---------1-3-3-3------|


4th time
|----------------------------------------------|
|----------------------------------------------|
|----------------------------------------------|
|-----3--3-5----------3--5------3--3-5---------|
|-5-5-1--1-3-3-5-5-5--1--3--5-5-1--1-3--3-5----|
|-3-3--------1-3-3-3--------3-3---------1-3----|


Both Gtrs
play twice
       PM         PM  PM|             PM         PM  PM|
|-------------------------------------------------------------|
|-------------------------------------------------------------|
|-------------------------------------------------------------|
|--------5-6-5------------3-------------5-6-5-----------------|
|----1---3S4-3--1---1-----1--1------1---3S4-3--1---1-----5----|
|-/3---3----------3---3-1----3---/3---3----------3---3-1-3----|


       PM         PM  PM|             PM
|------------------------------------------------------------|
|------------------------------------------------------------|
|------------------------------------------------------------|
|--------5S6-5------------3----------------------10-10-10----|
|----1---3S4-3--1---1-----1--1------1---1-3-------8--8--8----|
|-/3---3----------3---3-1----3---/3---3---1------------------|


Both Gtrs
play twice
|----------------------------------------------|
|----------------------------------------------|
|----------------------------------------------|
|-----3--3-5----------3--5------3--3-5---------|
|-5-5-1--1-3-3-5-5-5--1--3--5-5-1--1-3--3-5----|
|-3-3--------1-3-3-3--------3-3---------1-3----|


Repeat Chorus 3 times
Gtr 3 Lead (to be added)


Both Gtrs
play 3 times
                                            PM|
|----------------------------------------------------|
|----------------------------------------------------|
|-----------------------------------------------3----|
|-----3--3-5----------3--5------3--3-5----------3----|
|-5-5-1--1-3-3-5-5-5--1--3--5-5-1--1-3--5-5----------|
|-3-3--------1-3-3-3--------3-3---------1-3-3-3------|


Gtr 3, 3rd time
|------|
|------|
|-3----|
|-3----|
|------|
|------|


Both Gtrs
4th time
|----------------------------------------------|
|----------------------------------------------|
|----------------------------------------------|
|-----3--3-5----------3--5------3--3-5---------|
|-5-5-1--1-3-3-5-5-5--1--3--5-5-1--1-3--3-5----|
|-3-3--------1-3-3-3--------3-3---------1-3----|


Tablature Legend
----------------
 h   - hammer-on
 p   - pull-off
 b   - bend
 pb  - pre-bend
 r   - bend release (if no number after the r, then release immediately)
 /\  - slide into or out of (from/to "nowhere")
 s   - legato slide
 S   - shift slide
  - natural harmonic
[n]  - artificial harmonic
n(n) - tapped harmonic
 ~   - vibrato
 tr  - trill
 T   - tap
 TP  - trem. picking
 PM  - palm muting
\n/  - tremolo bar dip; n = amount to dip
 \n  - tremolo bar down
 n/  - tremolo bar up
/n\  - tremolo bar inverted dip
 =   - hold bend; also acts as connecting device for hammers/pulls
 <>  - volume swell (louder/softer)
 x   - on rhythm slash represents muted slash
 o   - on rhythm slash represents single note slash

Misc Legend
-----------
 |  - bar
||  - double bar
||o - repeat start
o|| - repeat end
*|  - double bar (ending)
 :  - bar (freetime)
 $  - Segno
 &  - Coda
Tempo markers -  = BPM(8/16=s8/s16), where s8 = swing 8ths, s16 = swing 16ths
Добавлено: 31.03.2012
Другие материалы по этой песне:
  • Аккорды и текст

Страница создана 31.03.2012
http://primanota.ru/annihilator/voices-and-victims-chords.htm
Привет, Гость.
Предлагаем пройти революционный курс по гитаре.
Подарок от PrimaNota.Ru, забирай!