PrimaNota.ru - самый крупный в мире бесплатный архив песенных текстов, аккордов, табулатур и нот


Annihilator - Crystal Ann - текст песни, таба, видео

Регистрация Запомнить меня
Войти через:  Facebook Google Twitter Vk Yandex Mail.ru

Annihilator - Crystal Ann - текст песни, таба, видео

Печатать
Просмотров: 305
Авторы музыки: Jeff Waters

As recorded by Annihilator
(From the 1989 Album ALICE IN HELL)

Transcribed by Near Dark
	

Music by Jeff Waters

C#sus2
x x 0 2 3 0
	
C#m
x x 0 2 3 1
	
C#+sus2
x x 0 3 3 0
	
A/C#
x x 0 3 3 1

Ebmaj7sus4/Ab
x 0 2 2 4 0
	
Gmaj7/E
1 3 5 1 x x

Gtr I (D# G# C# F# A# D#) - 'Untitled'
Gtr II (D# G# C# F# A# D#) - 'Untitled'
Gtr III (D# G# C# F# A# D#) - 'Untitled'
Gtr IV (D# G# C# F# A# D#) - 'Untitled'

 Intro
  Q=155
  C#sus2  C#m       C#+sus2 A/C#      C#sus2   C#m       C#+sus2   A/C#
 4/4
  Gtr I
  E E E E E E E E   E E E E E E E E    E E E E E E E E    E  E E E E E E E
|-------0-1p0-----|-------0-1p0-----|--------0-1p0-----|---------0-1p0------|
|-----3-------3---|-----3-------3---|------3-------3---|-------3-------3----|
|---2-----------2-|---3-----------3-|----2-----------2-|-----3-----------3--|
|-0---------------|-0---------------|--0---------------|--0-----------------|
|-----------------|-----------------|------------------|--------------------|
|-----------------|-----------------|------------------|--------------------|
|
| Gtr II
| W                 W                  W                 +W
|-----------------|-----------------|-^5---------------|-(5)----------------|
|-----------------|-----------------|-^6---------------|-(6)----------------|
|-----------------|-----------------|-^5---------------|-(5)----------------|
|-----------------|-----------------|-^7---------------|-(7)----------------|
|-----------------|-----------------|-^5---------------|-(5)----------------|
|-----------------|-----------------|------------------|--------------------|


  Gtrs I, II
  E E E E E E E E   E E E E E E E E   E E E E E E E E   E E E E E E E E
|-------0-1p0-----|-------0-1p0-----|-------0-1p0-----|-------0-1p0-----|
|-----3-------3---|-----3-------3---|-----3-------3---|-----3-------3---|
|---2-----------2-|---3-----------3-|---2-----------2-|---3-----------3-|
|-0---------------|-0---------------|-0---------------|-0---------------|
|-----------------|-----------------|-----------------|-----------------|
|-----------------|-----------------|-----------------|-----------------|


    E E E     E E E E E    E  E E     E E E E E
||------------0-1p0-----|-------------0-1p0-----|
||o-----3-----------3---|-------3-----------3---|
||----2---------------2-|-----2---------------2-|
||--0-------------------|-----------------------|
||o---------------------|--3--------------------|
||----------------------|-----------------------|
|
|     Gtr III
|       |-3-|                   |-3-|
|   E E S S S E E E E E   +E  E S S S E E E E E
||----5-3h5p3-------3-5-|-(5)-5-3h5p3-------3-5-|
||o-----------6-5-6-----|-------------6-5-6-----|
||----------------------|-----------------------|
||----------------------|-----------------------|
||o---------------------|-----------------------|
||----------------------|-----------------------|
|
|     Gtr IV
|       |-3-|                   |-3-|
|   E E S S S E E E E E   +E  E S S S E E E E E
||----8-6h8p6-5---5-6-8-|-(8)-8-6h8p6-5---5-6-8-|
||o-------------8-------|---------------8-------|
||----------------------|-----------------------|
||----------------------|-----------------------|
||o---------------------|-----------------------|
||----------------------|-----------------------|


   E  E E     E E E E E    E E E E E E E E
|-------------0-1p0-----|---------------------||
|-------3-----------3---|--------3-------3---o||
|-----2---------------2-|------0-------0------||
|-----------------------|----0-------0--------||
|--2--------------------|--1-------3---------o||
|-----------------------|---------------------||
|
|       |-3-|
| +E  E S S S E E E E E    E E E E E E E E
|-(5)-5-3h5p3-------3-5-|--6-5-3---5-3--------||
|-------------6-5-6-----|--------6-----6-----o||
|-----------------------|----------------5----||
|-----------------------|---------------------||
|-----------------------|--------------------o||
|-----------------------|---------------------||
|
|       |-3-|
| +E  E S S S E E E E E    E E E E E E E E
|-(8)-8-6h8p6-5---5-6-8-|-10-8-6-5-8-6-5------||
|---------------8-------|----------------6---o||
|-----------------------|---------------------||
|-----------------------|---------------------||
|-----------------------|--------------------o||
|-----------------------|---------------------||


  E   E   E   E   E   E   E   E     E   E   E   E E E E  E
|-------------0---1p==0-----------|-------------0-1p0-------|
|---------3---------------3-------|---------3---------3-----|
|-----2-----------------------2---|-----3----------------3--|
|-0-------------------------------|-0-----------------------|
|---------------------------------|-------------------------|
|---------------------------------|-------------------------|
|
| S S S S S S S S S S S S S S S S   S S S S S S H       +E
|---------------------------------|-------------------------|
|---------------------------1-2-3-|---1-3-2-1---------------|
|---------------0-2p0-3p2-3-------|-3---------3-2-------(2)-|
|-------2-3-2h3-------------------|-------------------------|
|-5p3h5---------------------------|-------------------------|
|---------------------------------|-------------------------|


  E E   E    E   E   E   E   E     E   E   E   E   E E E E
|------------0---1p==0-----------|-------------0---1p0-----|
|-------3----------------3-------|---------3-----------3---|
|---2------------------------2---|-----3-----------------3-|
|-0------------------------------|-0-----------------------|
|--------------------------------|-------------------------|
|--------------------------------|-------------------------|
|
|                                                  ~~
| E S S S  S S S S S S S S S S S   S S S S S S S S Q   Q
|-------5-10-5---5-----8-5---5---|-------------------------|
|-----6--------6---6-6-----8---8-|-6p5---5h6-6p5---6-------|
|-2-7----------------------------|-----7---------7---------|
|--------------------------------|-------------------------|
|--------------------------------|-------------------------|
|--------------------------------|-------------------------|


  E E     E E E     E E E   E E   E      E E E E E
|-----------0-1p====0-----|--------------0-1p0-----|
|---------3-----------3---|-------3------------3---|
|---2-------------------2-|---3------------------3-|
|-0-----------------------|-0----------------------|
|-------------------------|------------------------|
|-------------------------|------------------------|
|
|   |-3-|     |-3-|         |----3-----|
| E S S S E E S S S E E E   Q   Q   a  Q   Q   Q
|-5---------5---------5---|-5---6---6-/8---5-------|
|---8-6-5-----8-6-5-----8-|------------------------|
|---------7---------7-----|------------------------|
|-------------------------|------------------------|
|-------------------------|------------------------|
|-------------------------|------------------------|


  E E E E E E E E   E E E E E E E E
|-------0-1p0-----|-------0-1p0-----|
|-----3-------3---|-----3-------3---|
|---2-----------2-|---3-----------3-|
|-0---------------|-0---------------|
|-----------------|-----------------|
|-----------------|-----------------|
|
| E E E E E E E E   E E E E E E E E
|---8-----5-------|---5-------------|
|-6-----5---5-----|-----8-6-8-6-5---|
|-----7-------7---|-7-------------7-|
|---------------7-|-----------------|
|-----------------|-----------------|
|-----------------|-----------------|


    E E E     E E E E E    E  E E     E E E E E
||------------0-1p0-----|-------------0-1p0-----|
||o-----3-----------3---|-------3-----------3---|
||----2---------------2-|-----2---------------2-|
||--0-------------------|-----------------------|
||o---------------------|--3--------------------|
||----------------------|-----------------------|
|
|     Gtr III
|       |-3-|                   |-3-|
|   E E S S S E E E E E   +E  E S S S E E E E E
||----5-3h5p3-------3-5-|-(5)-5-3h5p3-------3-5-|
||o-----------6-5-6-----|-------------6-5-6-----|
||----------------------|-----------------------|
||----------------------|-----------------------|
||o---------------------|-----------------------|
||----------------------|-----------------------|
|
|     Gtr IV
|       |-3-|                   |-3-|
|   E E S S S E E E E E   +E  E S S S E E E E E
||----8-6h8p6-5---5-6-8-|-(8)-8-6h8p6-5---5-6-8-|
||o-------------8-------|---------------8-------|
||----------------------|-----------------------|
||----------------------|-----------------------|
||o---------------------|-----------------------|
||----------------------|-----------------------|


   E  E E     E E E E E    E E E E E E E E
|-------------0-1p0-----|---------------------||
|-------3-----------3---|--------3-------3---o||
|-----2---------------2-|------0-------0------||
|-----------------------|----0-------0--------||
|--2--------------------|--1-------3---------o||
|-----------------------|---------------------||
|
|       |-3-|
| +E  E S S S E E E E E    E E E E E E E E
|-(5)-5-3h5p3-------3-5-|--6-5-3---5-3--------||
|-------------6-5-6-----|--------6-----6-----o||
|-----------------------|----------------5----||
|-----------------------|---------------------||
|-----------------------|--------------------o||
|-----------------------|---------------------||
|
|       |-3-|
| +E  E S S S E E E E E    E E E E E E E E
|-(8)-8-6h8p6-5---5-6-8-|-10-8-6-5-8-6-5------||
|---------------8-------|----------------6---o||
|-----------------------|---------------------||
|-----------------------|---------------------||
|-----------------------|--------------------o||
|-----------------------|---------------------||


    B#/E
    E E E E E E E E    E  E E E E E E E
||--------0---------|---------0---------|
||o-----4---------4-|-------4---------4-|
||----------4---4---|-----------4---4---|
||----6-------6-----|-----6-------6-----|
||o-4---------------|--4----------------|
||------------------|-------------------|
|
|   Q   E E E E E E   +E  E E E E E Q
||--------0-------0-|-(0)-0---0---0-----|
||o-9---9---7---4---|-------4-----------|
||------------6-----|-----------6---4---|
||------------------|-------------------|
||o-----------------|-------------------|
||------------------|-------------------|


  Ebmaj7sus4/Ab       Gmaj7/E
   E  E E E E E Q     E   E   E   E   E   E   Q
|---------0---------|------------------------------|
|---------------4---|------------------------------|
|-------2---2-------|-------------2----------------|
|-----2-------2-----|---------6-------6------------|
|--0----------------|-----4---------------4---6----|
|-------------------|-2----------------------------|
|
|                     <
| +Q    E E E E E E   S S S S S S S S S S S S Q
|-------4-----------|------------------------------|
|---------5-7---4-5-|-7-7-7-7-7-7-7-7-7-7-7-7-7----|
|-(4)---------6-----|------------------------------|
|-------------------|------------------------------|
|-------------------|------------------------------|
|-------------------|------------------------------|


  B#/E
  E E E E E E E E    E  E E E E E E E
|-------0---------|---------0---------|
|-----4---------4-|-------4---------4-|
|---------4---4---|-----------4---4---|
|---6-------6-----|-----6-------6-----|
|-4---------------|--4----------------|
|-----------------|-------------------|
|
| Q   E E E E E E   +E  E E E E E Q
|-------0-------0-|-(0)-0---0---0-----|
|-9---9---7---4---|-------4-----------|
|-----------6-----|-----------6---4---|
|-----------------|-------------------|
|-----------------|-------------------|
|-----------------|-------------------|


   E  E E E E E Q     E  E E  E     E     E    Q
|---------0---------|---------------------------------||
|---------------4---|--------------------------------o||
|-------2---2-------|---------2-----------------------||
|-----2-------2-----|------6--------6-----------------||
|--0----------------|----4----------------4----6-----o||
|-------------------|-2-------------------------------||
|
| +Q    E E E E E E   Q.      S  S  S  S  S  E   E S
|-------4-----------|--------11h12h14-----------------||
|---------5-7---4-5-|-----------------16p14p12-------o||
|-(4)---------6-----|---------------------------------||
|-------------------|---------------------------------||
|-------------------|--------------------------------o||
|-------------------|---------------------------------||


    E E E     E E E E E    E  E E     E E E E E
||------------0-1p0-----|-------------0-1p0-----|
||o-----3-----------3---|-------3-----------3---|
||----2---------------2-|-----2---------------2-|
||--0-------------------|-----------------------|
||o---------------------|--3--------------------|
||----------------------|-----------------------|
|
|     Gtr III
|       |-3-|                   |-3-|
|   E E S S S E E E E E   +E  E S S S E E E E E
||----5-3h5p3-------3-5-|-(5)-5-3h5p3-------3-5-|
||o-----------6-5-6-----|-------------6-5-6-----|
||----------------------|-----------------------|
||----------------------|-----------------------|
||o---------------------|-----------------------|
||----------------------|-----------------------|
|
|     Gtr IV
|       |-3-|                   |-3-|
|   E E S S S E E E E E   +E  E S S S E E E E E
||----8-6h8p6-5---5-6-8-|-(8)-8-6h8p6-5---5-6-8-|
||o-------------8-------|---------------8-------|
||----------------------|-----------------------|
||----------------------|-----------------------|
||o---------------------|-----------------------|
||----------------------|-----------------------|


   E  E E     E E E E E    E E E E E E E E
|-------------0-1p0-----|---------------------||
|-------3-----------3---|--------3-------3---o||
|-----2---------------2-|------0-------0------||
|-----------------------|----0-------0--------||
|--2--------------------|--1-------3---------o||
|-----------------------|---------------------||
|
|       |-3-|
| +E  E S S S E E E E E    E E E E E E E E
|-(5)-5-3h5p3-------3-5-|--6-5-3---5-3--------||
|-------------6-5-6-----|--------6-----6-----o||
|-----------------------|----------------5----||
|-----------------------|---------------------||
|-----------------------|--------------------o||
|-----------------------|---------------------||
|
|       |-3-|
| +E  E S S S E E E E E    E E E E E E E E
|-(8)-8-6h8p6-5---5-6-8-|-10-8-6-5-8-6-5------||
|---------------8-------|----------------6---o||
|-----------------------|---------------------||
|-----------------------|---------------------||
|-----------------------|--------------------o||
|-----------------------|---------------------||


   E    E    E   E   E E E E   E   E   E   E   E E E E
|----------------0---1p0-----|-------------0---1p0-----|
|------------3-----------3---|---------3-----------3---|
|-------2------------------2-|-----3-----------------3-|
|--0-------------------------|-0-----------------------|
|----------------------------|-------------------------|
|----------------------------|-------------------------|
|
|  S  S S  S S S S S E E Q     S S S S S S S S E Q   E
|----------------------------|-------------------------|
|-11-10-8--------------------|-------------------------|
|---------10-9-7-6-----------|-------------5-----------|
|------------------8-7-------|-7-8-7-5-7-8---8-7-------|
|----------------------------|-------------------------|
|----------------------------|-------------------------|


  E  E          E E E E     E        E
|-----------------0-1p0----------------|
|---------------3-----------3----------|
|----2-------------------------------2-|
|-0------------------------------------|
|--------------------------------------|
|--------------------------------------|
|
| E  T  T  T  H          T  T  T  E.
|------------10------------------------|
|---------10------------------10-13----|
|------10------------------10----------|
|---12------------------12-------------|
|--------------------------------------|
|--------------------------------------|


    E  E        E    E E    E E      E
|--------------------0-1p===0---------------|
|---------------3-------------3-------------|
|------3-----------------------------3------|
|---0---------------------------------------|
|-------------------------------------------|
|-------------------------------------------|
|
|  +E.    T  T  T  Q      Q      +E     +S.
|-------------------------------------------|
|-(13)---------10-12-----12-----(12)---(12)-|
|-----------10------------------------------|
|--------12---------------------------------|
|-------------------------------------------|
|-------------------------------------------|


  E   E   E   E   E E E E   E   E    E   E E E E  E
|-------------0---1p0-----|--------------0-1p0-------|
|---------3-----------3---|----------3---------3-----|
|-----2-----------------2-|-----3-----------------3--|
|-0-----------------------|-0------------------------|
|-------------------------|--------------------------|
|-------------------------|--------------------------|
|
| S S S S S S S S Q   Q     S S S  S S S H       +E
|-5h6-5h6p5---------------|-----5-10-5-5-------------|
|-----------8-6-5---------|---6----------6-------(6)-|
|-----------------7-------|-7------------------------|
|-------------------------|--------------------------|
|-------------------------|--------------------------|
|-------------------------|--------------------------|


 Outro
  Q   Q Q a  Q   Q Q Q Q    W     +W
|--------------|-3-------|-^1---|-(1)---*|
|-------2-2-/5-|---5-2---|-^3---|-(3)---*|
|-----3--------|-------3-|-^2---|-(2)---*|
|-2------------|---------|-^0---|-(0)---*|
|--------------|---------|------|-------*|
|--------------|---------|------|-------*|
|
| Q a Q Q    Q   Q Q Q Q    W     +W
|--------------|-8-6-5---|------|-------*|
|-5-5-8-8---10-|---------|------|-------*|
|--------------|-------6-|--7---|-(7)---*|
|--------------|---------|------|-------*|
|--------------|---------|------|-------*|
|--------------|---------|------|-------*|



Duration Legend
---------------
W - whole; H - half; Q - quarter; E - 8th; S - 16th; T - 32nd; X - 64th; a - acciaccatura
+ - note tied to previous; . - note dotted; .. - note double dotted
Uncapitalized letters represent notes that are staccato (1/2 duration)
Irregular groupings are notated above the duration line
Duration letters will always appear directly above the note/fret number it represents the
duration for.  Duration letters with no fret number below them represent rests.  Multi-
bar rests are notated in the form Wxn, where n is the number of bars to rest for.  Low
melody durations appear below the staff

Tablature Legend
----------------
 h   - hammer-on
 p   - pull-off
 b   - bend
 pb  - pre-bend
 r   - bend release (if no number after the r, then release immediately)
 /\  - slide into or out of (from/to "nowhere")
 s   - legato slide
 S   - shift slide
 - natural harmonic
[n]  - artificial harmonic
n(n) - tapped harmonic
 ~   - vibrato
 tr  - trill
 T   - tap
 TP  - trem. picking
 PM  - palm muting
\n/  - tremolo bar dip; n = amount to dip
 \n  - tremolo bar down
 n/  - tremolo bar up
/n\  - tremolo bar inverted dip
 =   - hold bend; also acts as connecting device for hammers/pulls
 <> - volume swell (louder/softer)
 x   - on rhythm slash represents muted slash
 o   - on rhythm slash represents single note slash

Misc Legend
-----------
 |  - bar
||  - double bar
||o - repeat start
o|| - repeat end
*|  - double bar (ending)
 :  - bar (freetime)
 $  - Segno
 &  - Coda
Tempo markers -  = BPM(8/16=s8/s16), where s8 = swing 8ths, s16 = swing 16ths

Добавлено: 02.06.2013
Другие материалы по этой песне:

Страница создана 15.05.2012
http://primanota.ru/annihilator/crystal-ann-chords.htm
Привет, Гость.
Предлагаем пройти революционный курс по гитаре.
Подарок от PrimaNota.Ru, забирай!