PrimaNota.ru - самый крупный в мире бесплатный архив песенных текстов, аккордов, табулатур и нот


Annihilator - Refresh The Demon - текст песни, таба, видео

Регистрация Запомнить меня
Войти через:  Facebook Google Twitter Vk Yandex Mail.ru

Annihilator - Refresh The Demon - текст песни, таба, видео

Печатать
Просмотров: 165
Авторы музыки: Jeff Waters, Randy Black
Авторы текста: Jeff Waters
Annihilator - Refresh The Demon

tabbed by 
ol753_357lo@yahoo.co.uk

Tuning - E A D G B E


Both Gtrs
play twice, Gtr 2 repeats a beat after
|----------------------------------|
|--9--7---9--7---9--7--10--9--7----|
|-10--7--10--7--10--7--11-10--7----|
|----------------------------------|
|----------------------------------|
|----------------------------------|


Both Gtrs
play 3 times, Gtr 2 repeats a beat after
|--7--7---7--7---7--7---------7----|
|--9--7---9--7---9--7--10--9--7----|
|-10--7--10--7--10--7--11-10--7----|
|----------------------------------|
|----------------------------------|
|----------------------------------|


Both Gtrs
4th time
|--7--7---7--7---7--7---------|
|--9--7---9--7---9--7--10--9--|
|-10--7--10--7--10--7--11-10--|
|-----------------------------|
|-----------------------------|
|-----------------------------|


Both Gtrs
  PM|          PM         PM------|          PM----------|
|---------------------------------------------------------------|
|---------------------------------------------------------------|
|---------------------------------------------------------------|
|---------------------------------------------------------------|
|-----8-7-5-7----8-7-5-7------------8-7-5-7----------------1----|
|-0-0----------0----------0-3-0-0-0----------0-6-6-6-6-6-6-3----|


  PM|          PM         PM------|          PM--|    PM|
|--------------------------------------------------------------|
|--------------------------------------------------------------|
|--------------------------------------------------------------|
|--------------------------------------------------------------|
|-----8-7-5-8----8-7-5-7------------8-7-5-7--------8------1----|
|-0-0----------0----------0-3-0-0-0----------0-6-6-6--3-3-3----|


Gtr 1
play twice
  PM|          PM         PM------|          PM----------|
|---------------------------------------------------------------|
|---------------------------------------------------------------|
|---------------------------------------------------------------|
|---------------------------------------------------------------|
|-----8-7-5-7----8-7-5-7------------8-7-5-7----------------1----|
|-0-0----------0----------0-3-0-0-0----------0-6-6-6-6-6-6-3----|


Gtr 2
play twice
  PM|             PM            PM------|             PM----------|
|------------------------------------------------------------------------|
|------------------------------------------------------------------------|
|------------------------------------------------------------------------|
|------------------------------------------------------------------------|
|-----11-10-8-10----11-10-8-10------------11-10-8-10----------------1----|
|-0-0-------------0-------------0-3-0-0-0-------------0-6-6-6-6-6-6-3----|


Both Gtrs
  PM|          PM         PM------|          PM----------|
|---------------------------------------------------------------|
|---------------------------------------------------------------|
|---------------------------------------------------------------|
|---------------------------------------------------------------|
|-----8-7-5-7----8-7-5-7------------8-7-5-7----------------1----|
|-0-0----------0----------0-3-0-0-0----------0-6-6-6-6-6-6-3----|


  PM|          PM         PM------|          PM--|    PM|
|--------------------------------------------------------------|
|--------------------------------------------------------------|
|--------------------------------------------------------------|
|--------------------------------------------------------------|
|-----8-7-5-8----8-7-5-7------------8-7-5-7--------8------1----|
|-0-0----------0----------0-3-0-0-0----------0-6-6-6--3-3-3----|


Both Gtrs
play twice
  PM|     PM  PM|     PM|         PM|     PM  PM|     PM|
|-----------------------------------------------------------------|
|-----------------------------------------------------------------|
|-----------------------------------------------------------------|
|-----------------------------------------------------------------|
|-----8S7---5-----7S5-----3p2-8-8-----8S7---5-----7S5-----3--3----|
|-0-0-6S5-0-3-0-0-5S3-0-0-1p0-6-6-0-0-6S5-0-3-0-0-5S3-0-0-1--1----|


  PM|     PM  PM|     PM|         PM|     PM  PM------------|
|------------------------------------------------------------------|
|------------------------------------------------------------------|
|------------------------------------------------------------------|
|------------------------------------------------------------------|
|-----8S7---5-----7S5-----3p2-8-8-----8S7---5-----------------3----|
|-0-0-6S5-0-3-0-0-5S3-0-0-1p0-6-6-0-0-6S5-0-3-0-0-6-6-6-6-1-1-1----|


Verse 1
Both Gtrs
play twice
  PM--------------------|       PM--------------------|
|-----------------------------------------------------------------|
|-------------------------8--8---------------------------9---9----|
|-------------------------9--9--------------------------10--10----|
|-------------------------9--9--------------------------10--10----|
|-------------------------7--7---------------------------8---8----|
|-0-0-0-0-0-0-0-0-0-0-0-0-------0-0-0-0-0-0-0-0-0-0-0-0-----------|


  PM--------------------|         PM--------------------|
|-------------------------------------------------------------------|
|-------------------------10--10--------------------------11--11----|
|-------------------------11--11--------------------------12--12----|
|-------------------------11--11--------------------------12--12----|
|--------------------------9---9--------------------------10--10----|
|-0-0-0-0-0-0-0-0-0-0-0-0---------0-0-0-0-0-0-0-0-0-0-0-0-----------|


Chorus
Both Gtrs
  PM|     PM  PM|     PM|         PM|     PM  PM|     PM|
|-----------------------------------------------------------------|
|-----------------------------------------------------------------|
|-----------------------------------------------------------------|
|-----------------------------------------------------------------|
|-----8S7---5-----7S5-----3p2-8-8-----8S7---5-----7S5-----3--3----|
|-0-0-6S5-0-3-0-0-5S3-0-0-1p0-6-6-0-0-6S5-0-3-0-0-5S3-0-0-1--1----|


  PM|     PM  PM|     PM|         PM|     PM  PM------------|
|------------------------------------------------------------------|
|------------------------------------------------------------------|
|------------------------------------------------------------------|
|------------------------------------------------------------------|
|-----8S7---5-----7S5-----3p2-8-8-----8S7---5-----------------3----|
|-0-0-6S5-0-3-0-0-5S3-0-0-1p0-6-6-0-0-6S5-0-3-0-0-6-6-6-6-1-1-1----|


Verse 2
Both Gtrs
play 4 times
  PM--------------------|       PM--------------------|
|-----------------------------------------------------------------|
|-------------------------8--8---------------------------9---9----|
|-------------------------9--9--------------------------10--10----|
|-------------------------9--9--------------------------10--10----|
|-------------------------7--7---------------------------8---8----|
|-0-0-0-0-0-0-0-0-0-0-0-0-------0-0-0-0-0-0-0-0-0-0-0-0-----------|


  PM--------------------|         PM--------------------|
|-------------------------------------------------------------------|
|-------------------------10--10--------------------------11--11----|
|-------------------------11--11--------------------------12--12----|
|-------------------------11--11--------------------------12--12----|
|--------------------------9---9--------------------------10--10----|
|-0-0-0-0-0-0-0-0-0-0-0-0---------0-0-0-0-0-0-0-0-0-0-0-0-----------|


Repeat Chorus twice


Both Gtrs
play 4 times
  PM-|    PM-----|    PM------------------------------|
|----------------------------------------------------------|
|----------------------------------------------------------|
|----------------------------------------------------------|
|----------------------------------------------------------|
|------8\----------8\--------------------------------------|
|-0--0-6\-0-0-0--0-6\-0-0-0--0-0-0--0-0-0-0-0-0-0-0-0-0----|


Both Gtrs
play 3 times
  PM-|    PM-----|    PM----------------------------|
|--------------------------------------------------------|
|--------------------------------------------------------|
|--------------------------------------------------------|
|--------------------------------------------------------|
|------8\----------8\------------------------------------|
|-0--0-6\-0-0-0--0-6\-0-0-0--0-0-0--0-0-0--0-0--0-0-0----|


4th time
  PM-|    PM-----|    PM---------------------|
|-------------------------------------------------|
|-------------------------------------------------|
|-------------------------------------------------|
|-------------------------------------------------|
|------8\----------8\-----------------------------|
|-0--0-6\-0-0-0--0-6\-0-0-0--0-0-0--0-0-0--0-0----|


Both Gtrs
play 3 times
|----------------------------------|
|----------------------------------|
|----------------------------------|
|----------------------------------|
|---------------------5-----5-3----|
|-0-3-5-6-5-3-5-6-3-4---3-4---1----|


4th time
|-------------------------------------|
|-------------------------------------|
|-------------------------------------|
|-------------------------------------|
|---------------------5-----5-3--2----|
|-0-3-5-6-5-3-5-6-3-4---3-4---1--0----|


Gtr 3
joins 3rd time
|----------------------------------|
|----------------------------------|
|---------------------7-----7------|
|---5-7-8-7-5-7-8-5-6---5-6---3----|
|-7--------------------------------|
|----------------------------------|


|----------------------------------|
|----------------------------------|
|---------------------7-----7------|
|---5-7-8-7-5-7-8-5-6---5-6---3--2-|
|-7--------------------------------|
|----------------------------------|


Both Gtrs
play 4 times, Gtr 3 Lead (to be added)
                                        PM------|
|----------------------------------------------------|
|----------------------------------------------------|
|----------------------------------------------------|
|-4-4-4-4-4-4-4-----------4-4-4-4-4-4-4--------------|
|-2-2-2-2-2-2-2-----------2-2-2-2-2-2-2--------------|
|---------------0-2-3-2-0---------------0-2-3-2-0----|


|-------------------------------------------|
|-------------------------3-3-3-------------|
|-------------------------2-2-2----2-2-2----|
|-4-4-4-4-4-4-4-----------0-0-0----2-2-2----|
|-2-2-2-2-2-2-2-----------0-0-0----0-0-0----|
|---------------0-2-3-2-0-------------------|


Both Gtrs, Gtr 3 (to be added)
                                                      PM------|
|----------------------------------------------------------------|
|----------------------------------------------------------------|
|-0------2-------------------------------------------------------|
|-0------2------4-4-4-4-4-4-4-----------4-4-4-4-4-4-4------------|
|-2------0------2-2-2-2-2-2-2-----------2-2-2-2-2-2-2------------|
|-3---------------------------0-2-3-2-0---------------0-2-3-2-0--|


               PM----------------------------------------------------|
|----------------------------------------------------------------------|
|----------------------------------------------------------------------|
|-0------2-------------------------------------------------------------|
|-0------2-------------------------------------------------------------| /3\ triplets
|-2------0-----/-3-\-/-3-\-/-3-\-/-3-\---------------------------------|
|-3------------2-2-2-2-2-2-2-2-2-2-2-2-2-2-2-2-2-2-2-2-2-2-2-2-2-2-2-2-|


Both Gtrs
play twice, Gtr 3 Lead (to be added)
  PM|     PM  PM|     PM|         PM|     PM  PM|     PM|
|-----------------------------------------------------------------|
|-----------------------------------------------------------------|
|-----------------------------------------------------------------|
|-----------------------------------------------------------------|
|-----8S7---5-----7S5-----3p2-8-8-----8S7---5-----7S5-----3--3----|
|-0-0-6S5-0-3-0-0-5S3-0-0-1p0-6-6-0-0-6S5-0-3-0-0-5S3-0-0-1--1----|


  PM|     PM  PM|     PM|         PM|     PM  PM------------|
|------------------------------------------------------------------|
|------------------------------------------------------------------|
|------------------------------------------------------------------|
|------------------------------------------------------------------|
|-----8S7---5-----7S5-----3p2-8-8-----8S7---5-----------------3----|
|-0-0-6S5-0-3-0-0-5S3-0-0-1p0-6-6-0-0-6S5-0-3-0-0-6-6-6-6-1-1-1----|


Both Gtrs
play twice
  PM-|    PM-----|    PM------------------------------|
|----------------------------------------------------------|
|----------------------------------------------------------|
|----------------------------------------------------------|
|----------------------------------------------------------|
|------8\----------8\--------------------------------------|
|-0--0-6\-0-0-0--0-6\-0-0-0--0-0-0--0-0-0-0-0-0-0-0-0-0----|


Both Gtrs
  PM-|    PM-----|    PM----------------------------|
|--------------------------------------------------------|
|--------------------------------------------------------|
|--------------------------------------------------------|
|--------------------------------------------------------|
|------8\----------8\------------------------------------|
|-0--0-6\-0-0-0--0-6\-0-0-0--0-0-0--0-0-0--0-0--0-0-0----|


  PM-|    PM-----|    PM---------------------|
|-------------------------------------------------|
|-------------------------------------------------|
|-------------------------------------------------|
|-------------------------------------------------|
|------8\----------8\-----------------------------|
|-0--0-6\-0-0-0--0-6\-0-0-0--0-0-0--0-0-0--0-0----|


Repeat Verse 1
Repeat Chorus 4 times


Both Gtrs
play 8 times (fades out and in)
  PM-|    PM-----|    PM------------------------------|
|----------------------------------------------------------|
|----------------------------------------------------------|
|----------------------------------------------------------|
|----------------------------------------------------------|
|------8\----------8\--------------------------------------|
|-0--0-6\-0-0-0--0-6\-0-0-0--0-0-0--0-0-0-0-0-0-0-0-0-0----|


Both Gtrs
play 3 times
  PM-|    PM-----|    PM----------------------------|
|--------------------------------------------------------|
|--------------------------------------------------------|
|--------------------------------------------------------|
|--------------------------------------------------------|
|------8\----------8\------------------------------------|
|-0--0-6\-0-0-0--0-6\-0-0-0--0-0-0--0-0-0--0-0--0-0-0----|


4th time
  PM-|    PM-----|    PM---------------------|
|-------------------------------------------------|
|-------------------------------------------------|
|-------------------------------------------------|
|-------------------------------------------------|
|------8\----------8\-----------------------------|
|-0--0-6\-0-0-0--0-6\-0-0-0--0-0-0--0-0-0--0-0----|


Tablature Legend
----------------
 h   - hammer-on
 p   - pull-off
 b   - bend
 pb  - pre-bend
 r   - bend release (if no number after the r, then release immediately)
 /\  - slide into or out of (from/to "nowhere")
 s   - legato slide
 S   - shift slide
  - natural harmonic
[n]  - artificial harmonic
n(n) - tapped harmonic
 ~   - vibrato
 tr  - trill
 T   - tap
 TP  - trem. picking
 PM  - palm muting
\n/  - tremolo bar dip; n = amount to dip
 \n  - tremolo bar down
 n/  - tremolo bar up
/n\  - tremolo bar inverted dip
 =   - hold bend; also acts as connecting device for hammers/pulls
 <>  - volume swell (louder/softer)
 x   - on rhythm slash represents muted slash
 o   - on rhythm slash represents single note slash

Misc Legend
-----------
 |  - bar
||  - double bar
||o - repeat start
o|| - repeat end
*|  - double bar (ending)
 :  - bar (freetime)
 $  - Segno
 &  - Coda
Tempo markers -  = BPM(8/16=s8/s16), where s8 = swing 8ths, s16 = swing 16ths
Добавлено: 11.07.2012
Другие материалы по этой песне:

Страница создана 09.03.2012
http://primanota.ru/annihilator/refresh-the-demon-chords.htm
Привет, Гость.
Предлагаем пройти революционный курс по гитаре.
Подарок от PrimaNota.Ru, забирай!