PrimaNota.ru - самый крупный в мире бесплатный архив песенных текстов, аккордов, табулатур и нот


Annihilator - Snake In The Grass - текст песни, таба, бас-таба, видео

Регистрация Запомнить меня
Войти через:  Facebook Google Twitter Vk Yandex Mail.ru

Annihilator - Snake In The Grass - текст песни, таба, бас-таба, видео

Печатать
Просмотров: 182
As recorded by Annihilator
(From the 1993 Album SET THE WORLD ON FIRE)

Transcribed by Pete (Delirium_Veil)
        

Words and Music by Jeff Waters
Arranged by J. Waters / Annihilator

Gtr I (E A D G B E) - 'Jeff Waters'
Gtr II (E A D G B E) - 'Neil Goldberg harmony'
Gtr III (E A D G B E) - 'Jeff harmony'
Gtr IV (E A D G B E) - 'Jeff lead'
Gtr V (E A D G B E) - 'Neil heavy'

 Intro
  Q=100
  Em     Bm7            Em     Bm7
 4/4
  Gtr I
  E. S E E +Q   E S S   E. S E E +Q   E S S
|-0--0---7-(7)--7-x-x-|-0--0---7-(7)--7-x-x-|
|-0--0---7-(7)--7-x-x-|-0--0---7-(7)--7-x-x-|
|-0--0---7-(7)--7-x-x-|-0--0---7-(7)--7-x-x-|
|-4--4---9-(9)--9-x-x-|-4--4---9-(9)--9-x-x-|
|-7--7---7-(7)--7-x-x-|-7--7---7-(7)--7-x-x-|
|---------------------|---------------------|


  C                     Am
  E. S E E +Q   E S S   E. S E E +Q   E S S
|-3--3---3-(3)--3-x-x-|-3--3---3-(3)--3-x-x--|
|-3--3---3-(3)--3-x-x-|-0--0---0-(0)--0-x-x--|
|-0--0---0-(0)--0-x-x-|-2--2---2-(2)--2-x-x--|
|---------------------|-2--2---2-(2)--2-x-x--|
|-3--3---3-(3)--3-x-x-|-0--0---0-(0)--0-x-x--|
|---------------------|----------------------|


  Em      Bm7               Em      Bm7
  E. S  E  E  +Q    E S S   E. S  E  E  +Q    E S S
|-0--0-----7--(7)---7-x-x-|-0--0-----7--(7)---7-x-x-|
|-0--0-----7--(7)---7-x-x-|-0--0-----7--(7)---7-x-x-|
|-0--0-----7--(7)---7-x-x-|-0--0-----7--(7)---7-x-x-|
|-4--4-----9--(9)---9-x-x-|-4--4-----9--(9)---9-x-x-|
|-7--7-----7--(7)---7-x-x-|-7--7-----7--(7)---7-x-x-|
|-------------------------|-------------------------|
|
| Gtr II
| Q     E  E  +E  Q   E     Q     E  E  +E  Q   E
|-------------------------|-------------------------|
|------12-10-(10)-7-------|------12-10-(10)-7-------|
|-9-------------------7---|-9-------------------7---|
|-------------------------|-------------------------|
|-------------------------|-------------------------|
|-------------------------|-------------------------|
|
| Gtr III
| Q     E  E  +E  Q   E     Q     E  E  +E  Q   E
|-------------------------|-------------------------|
|-8-----------------------|-8-----------------------|
|------12-11-(11)-7-------|------12-11-(11)-7-------|
|---------------------9---|---------------------9---|
|-------------------------|-------------------------|
|-------------------------|-------------------------|


  C                          Am
   E. S E E +Q      E  S S     E. S E E +Q   E S S
|--3--3---3-(3)-----3--x-x-|---3--3---3-(3)--3-x-x-||
|--3--3---3-(3)-----3--x-x-|---0--0---0-(0)--0-x-x-||
|--0--0---0-(0)-----0--x-x-|---2--2---2-(2)--2-x-x-||
|--------------------------|---2--2---2-(2)--2-x-x-||
|--3--3---3-(3)-----3--x-x-|---0--0---0-(0)--0-x-x-||
|--------------------------|-----------------------||
|
|  H         E   E  E  E      +W
|--------------------------|-----------------------||
|--8-----------------------|-----------------------||
|--------------------------|-----------------------||
|----------------9-12-10---|-(10)------------------||
|--------------------------|-----------------------||
|--------------------------|-----------------------||
|
|  H         E   E  E  E      +W
|--------------------------|-----------------------||
|--------------------------|-----------------------||
|--------------------------|-----------------------||
|-10----------------9--7---|--(7)------------------||
|---------------10---------|-----------------------||
|--------------------------|-----------------------||


 Pre-Verse
  Em     Bm7             Em     Bm7
  E. S E E +E  E S E S   E. S E E +E  E S E S
|-0--0---7-(7)-7---7-7-|-0--0---7-(7)-7---7-7-|
|-0--0---7-(7)-7---7-7-|-0--0---7-(7)-7---7-7-|
|-0--0---7-(7)-7---7-7-|-0--0---7-(7)-7---7-7-|
|-4--4---9-(9)-9---9-9-|-4--4---9-(9)-9---9-9-|
|-7--7---7-(7)-7---7-7-|-7--7---7-(7)-7---7-7-|
|----------------------|----------------------|


  C                     Am
  E. S E E +Q   E S S   E. S E E +Q   E S S
|-3--3---3-(3)--3-x-x-|-3--3---3-(3)--3-x-x-|
|-3--3---3-(3)--3-x-x-|-0--0---0-(0)--0-x-x-|
|-0--0---0-(0)--0-x-x-|-2--2---2-(2)--2-x-x-|
|---------------------|-2--2---2-(2)--2-x-x-|
|-3--3---3-(3)--3-x-x-|-0--0---0-(0)--0-x-x-|
|---------------------|---------------------|


  Em     Bm7             Em     Bm7
  E. S E E +E  E S E S   E. S E E +E  E S E S
|-0--0---7-(7)-7---7-7-|-0--0---7-(7)-7---7-7-|
|-0--0---7-(7)-7---7-7-|-0--0---7-(7)-7---7-7-|
|-0--0---7-(7)-7---7-7-|-0--0---7-(7)-7---7-7-|
|-4--4---9-(9)-9---9-9-|-4--4---9-(9)-9---9-9-|
|-7--7---7-(7)-7---7-7-|-7--7---7-(7)-7---7-7-|
|----------------------|----------------------|


  C                     Am
  E. S E E +Q   E S S   E. S E E +Q   E S S
|-3--3---3-(3)--3-x-x-|-3--3---3-(3)--3-x-x-||
|-3--3---3-(3)--3-x-x-|-0--0---0-(0)--0-x-x-||
|-0--0---0-(0)--0-x-x-|-2--2---2-(2)--2-x-x-||
|---------------------|-2--2---2-(2)--2-x-x-||
|-3--3---3-(3)--3-x-x-|-0--0---0-(0)--0-x-x-||
|---------------------|---------------------||


  Dm                        Am
  E S S +E  E S S E E S S   E. S E E +E  E Q
|-1-0-0-(0)-1-1-1-1-1-x-x-|-0--0-0-0-(0)-0-0--|
|-3-3-3-(3)-3-3-3-3-3-x-x-|-0--0-0-0-(0)-0-0--|
|-2-2-2-(2)-2-2-2-2-2-x-x-|-2--2-2-2-(2)-2-2--|
|-0-0-0-(0)-0-0-0-0-0-x-x-|-2--2-2-2-(2)-2-2--|
|-------------------------|-0--0-0-0-(0)-0-0--|
|-------------------------|-------------------|


  Dm                        Am
  E S S +E  E S S E E S S   E. S E E +E  S S E E
|-1-0-0-(0)-1-1-1-1-1-x-x-|-0--0-0-0-(0)-0-0-------|
|-3-3-3-(3)-3-3-3-3-3-x-x-|-0--0-0-0-(0)-0-0-------|
|-2-2-2-(2)-2-2-2-2-2-x-x-|-2--2-2-2-(2)-2-2-------|
|-0-0-0-(0)-0-0-0-0-0-x-x-|-2--2-2-2-(2)-2-2-------|
|-------------------------|-0--0-0-0-(0)-0-0-0-2---|
|-------------------------|------------------------|


  C                     G                       A7sus4
                                     |-3-|
  E. S E E +Q   E S S   E. S E E +E  S S S Q    W          +W
|-3--3-3-3-(3)--3-x-x-|-3--3-3-3-(3)----------|-3--------|-(3)----||
|-3--3-3-3-(3)--3-x-x-|-3--3-3-3-(3)----------|-3--------|-(3)----||
|-0--0-0-0-(0)--0-x-x-|-0--0-0-0-(0)----------|-2--------|-(2)----||
|---------------------|-----------------------|-0--------|-(0)----||
|-3--3-3-3-(3)--3-x-x-|-2--2-2-2-(2)-0h2p0----|-0--------|-(0)----||
|---------------------|--------------------3--|----------|--------||


  Em     Bm7         Em     Bm7         C                     Am
  E. S E E +Q   Q    E. S E E +Q   Q    E. S E E +Q   E S S   W
|-0--0---7-(7)--7--|-0--0---7-(7)--7--|-3--3---3-(3)--3-3-3-|-3----||
|-0--0---7-(7)--7--|-0--0---7-(7)--7--|-3--3---3-(3)--3-3-3-|-0----||
|-0--0---7-(7)--7--|-0--0---7-(7)--7--|-0--0---0-(0)--0-0-0-|-2----||
|-4--4---9-(9)--9--|-4--4---9-(9)--9--|---------------------|-2----||
|-7--7---7-(7)--7--|-7--7---7-(7)--7--|-3--3---3-(3)--3-3-3-|-0----||
|------0-----------|------0-----------|---------------------|------||


   Verse
    Q=100(16=s16)
    Em                                          D
    Gtrs I, II
    E S S +S  S E +H       E S S +S  S E +Q   S E.
||-----------------------|-------------------------|
||o----------------------|-------------------------|
||------0-(0)------------|-----0-(0)---------------|
||----4-------4----------|---4-------4----------4--|
||o-------------7-(7)----|-------------7-(7)--7-5--|
||--0--------------------|-0-----------------------|


  C                     Am                          B
  E S S +S  S E +Q   E. S   +E  S S +S  S E S S S S S E.
|-----3-(3)---------------|-------3-(3)-------------------|
|-----------3-------------|-------------0-----------0-0---|
|---5---------5-(5)--5----|-----5---------5-----5---------|
|-------------------------|-------------------5---5-------|
|-3---------------------0-|-(0)-------------0-------------|
|-------------------------|-------------------------------|


  Em                                          D
  E S S +S  S E +H       E S S +S  S E +Q   S E.
|----------------------|-------------------------|
|----------------------|-------------------------|
|-----0-(0)------------|-----0-(0)---------------|
|---4-------4----------|---4-------4----------4--|
|-------------7-(7)----|-------------7-(7)--7-5--|
|-0--------------------|-0-----------------------|


  C                     Am                          C5
                                                    Gtrs IV, V
  E S S +S  S E +Q   E. S   +E  S S +S  S E S S S S S E.
|-----3-(3)---------------|-------3-(3)--------------------||
|-----------3-------------|-------------0------------------||
|---5---------5-(5)--5----|-----5---------5-----5---5-5----||
|-------------------------|-------------------5---5-5-5----||
|-3---------------------0-|-(0)-------------0-------3-3----||
|-------------------------|--------------------------------||


 Pre-Chorus
  F               G                 Am
  S S S S S S S S S S S S S S S S   S S S S +E  S S E S S +Q
|---------------------------------|-----------------------------|
|---------------------------------|-----------------------------|
|---------------------------------|-5-----5-(5)-----5-7-5-(5)\--|
|---------3---------------5-------|-5-----5-(5)-----5-7-5-(5)\--|
|---------------------------------|---0-0-------0-0-------------|
|-1---1-1---1---1-3---3-3---3---3-|-----------------------------|


                                   1.
  F               G                 Am              C G F
  S S S S S S S S S S S S S S S S   S S S S +E  S S E E S S E
|---------------------------------|---------------------------||
|---------------------------------|---------------------------||
|---------------------------------|-5-----5-(5)-----5-4-------||
|---------3---------------5-------|-5-----5-(5)-----5-5-3-3---||
|---------------------------------|---0-0-------0-0-----3-3---||
|-1---1-1---1---1-3---3-3---3---3-|---------------------1-1---||


 Chorus
  E5G5F#F5E5    BbA5Bb5  E5G5F#F5E5
  e e e S S +E  E S E.   e e e S S +E  S S  S   +E.
|----------------------|-----------------------------|
|----------------------|-----------------------------|
|----------------------|-----------------------------|
|----------------------|-------------------[2]-([2])-|
|-2-5-4-3-2-(2)-8-7-8--|-2-5-4-3-2-(2)---------------|
|-0-3-2-1-0-(0)-6-5-6--|-0-3-2-1-0-(0)-3-4-----------|


  E5G5F#F5E5    BbA5Bb5  N.C.            E5
                                 |-3-|
  e e e S S +E  E S E.   e e e e S S S S S +Q
|----------------------|---------------------------||
|----------------------|--------------------------o||
|----------------------|---------------------------||
|----------------------|-----------------9-(9)-----||
|-2-5-4-3-2-(2)-8-7-8--|-----------------7-(7)----o||
|-0-3-2-1-0-(0)-6-5-6--|-3-5-3-5-6-5-3-0-----------||


  2.,3.
  Am
  Gtr IV
  S S S S +E  S S E S S +Q
|-------------------------------|
|-------------------------------|
|-5-----5-(5)-----5-7-5-(5)-----|
|-5-----5-(5)-----5-7-5-(5)-----|
|---0-0-------0-0---------------|
|-------------------------------|
|
| Gtr V
| H               Q      S   E.
|-----------------------12--12--|
|-----------------------13--13--|
|-------------------------------|
|-------------------------------|
|-------------------------------|
|-------------------------------|


  F                   G                 Am
    S   S S S S S S S S S S S S S S S   S S S S +E  S S E S S +Q
|-------------------------------------|------------------------------|
|-------------------------------------|------------------------------|
|-------------------------------------|-5-----5-(5)-----5-7-5-(5)----|
|-------------3---------------5-------|-5-----5-(5)-----5-7-5-(5)----|
|-------------------------------------|---0-0-------0-0--------------|
|---1-----1-1---1---1-3---3-3---3---3-|------------------------------|
|
|  +H.                        Q         W
|-(12)\-------------------------------|------------------------------|
|-(13)\-------------------------------|------------------------------|
|-------------------------------------|------------------------------|
|-------------------------------------|------------------------------|
|-------------------------------------|------------------------------|
|-------------------------------------|------------------------------|


  F               G                 Am              C G F
  Gtrs IV, V
  S S S S S S S S S S S S S S S S   S S S S +E  S S E E S S E
|---------------------------------|---------------------------||
|---------------------------------|---------------------------||
|---------------------------------|-5-----5-(5)-----5-4-------||
|---------3---------------5-------|-5-----5-(5)-----5-5-3-3---||
|---------------------------------|---0-0-------0-0-----3-3---||
|-1---1-1---1---1-3---3-3---3---3-|---------------------1-1---||


   Chorus
    E5G5F#F5E5    BbA5Bb5  E5G5F#F5E5
    e e e S S +E  E S E.   e e e S S +E  S S  S   +E.
||-----------------------|-----------------------------|
||o----------------------|-----------------------------|
||-----------------------|-----------------------------|
||-----------------------|-------------------[2]-([2])-|
||o-2-5-4-3-2-(2)-8-7-8--|-2-5-4-3-2-(2)---------------|
||--0-3-2-1-0-(0)-6-5-6--|-0-3-2-1-0-(0)-3-4-----------|


  E5G5F#F5E5    BbA5Bb5  N.C.            E5
                                 |-3-|
  e e e S S +E  E S E.   e e e e S S S S S +Q
|----------------------|--------------------------||
|----------------------|-------------------------o||
|----------------------|--------------------------||
|----------------------|-----------------9-(9)----||
|-2-5-4-3-2-(2)-8-7-8--|-----------------7-(7)---o||
|-0-3-2-1-0-(0)-6-5-6--|-3-5-3-5-6-5-3-0----------||


 Bridge
  E5F#5    E5F#5       A B5C5 A5     F#m
                      2/4           4/4
  S S E Q  E E E. S    E E  S E.     s s s S +S  S s s e s s e s s
|-------------------||-----------||--------------------------------|
|-------------------||-----------||o-------------------------------|
|-------------------||-----------||--------------------------------|
|-------------------||-----------||--------4-(4)-4-----------------|
|-2-4------2-4------||-9-9-10-7--||o-------------------------------|
|-0-2------0-2------||-5-7--8-5--||--0-2-2---------2-2-2-2-0-2-2-0-|


                            A5
  s s s S +S  S s s e s s S E.
|------------------------------|
|------------------------------|
|------------------------------|
|-------4-(4)-4-------------2--|
|---------------------------0--|
|-0-2-2---------2-2-2-2-0-2----|


  F#m                             A5 B5 A5 E5
  s s s S +S  S s s e s s S S E   Q  Q  Q  Q
|-------------------------------|----------------||
|-------------------------------|---------------o||
|-------------------------------|----------------||
|-------4-(4)-4-----------------|----------------||
|-------------------------------|-7--9--7--2----o||
|-0-2-2---------2-2-2-2-0-2-5p4-|-5--7--5--0-----||


  N.C.                                                        A5
  S S S S S S S S S S S S S S S S   S S S S S S S S S S S S S E.
|---------------------------------|------------------------------|
|---------------------------------|------------------------------|
|---------------------------------|------------------------------|
|---------------------------------|---------------------------2--|
|---------------------------------|---------------------------0--|
|-0-1-2-0-1-2-0-1-2-0-1-2-0-1-2-0-|-1-2-0-1-2-0-1-2-0-1-2-0-2----|


  N.C.                    A5F#5   A5 B5 A5 E5
  S S S S S S S S S S S S S S E   Q  Q  Q  Q
|-------------------------------|-------------||
|-------------------------------|-------------||
|-------------------------------|-------------||
|-------------------------2-----|-------------||
|-------------------------0-4---|-7--9--7--2--||
|-0-1-2-0-1-2-0-1-2-0-1-2---2---|-5--7--5--0--||


 Guitar Solo
  N.C.
  Gtr IV
   S      +S    +E       +H               +S  S E    H              +Q       Q
|-------------------------------------------------|------------------------------|
|-------------------------------------------------|------------------------------|
|-[4]b6==([4])r([4])b6==([4])r============(4)-2-4-|-[2]b4==========([2])---------|
|-------------------------------------------------|------------------------------|
|-------------------------------------------------|------------------------------|
|-------------------------------------------------|------------------------------|
|
| Gtr V
|  e             e        e   s s +S  s e  e    e    e     e e s s  +S   s e e e
|-------------------------------------------------|------------------------------|
|-------------------------------------------------|------------------------------|
|-------------------------------------------------|------------------------------|
|-------------------------------------------------|------------------------------|
|-------------------------------------------------|------------------------------|
|--0-------------2--------0---2-0-(0)-0-2--0----2-|--0-----2-0-2-0--(0)--0-2-0-2-|


                                                                      ~~~~~~~~~~~~~~~~~
                                       |--3--|             |--3--|
   E     +E       +Q        Q         +S   S S E    S  S E e e   e   +Q         Q
|------------------------------------------------|---------------------------------------|
|------------------------------------------------|---------------------------------------|
|-[4]b6r([4])b6==([4])r====[4]b6r====([4])-2---4-|-[2]-----------------------------------|
|--------------------------------------------4---|-----4-2-------------------------------|
|------------------------------------------------|---------4-3---2---(2)b4======2(14)r---|
|------------------------------------------------|---------------------------------------|
|
|  e      e        e   s s +S    s e   e       e    e    e e   s   s +S     s e e      e
|------------------------------------------------|---------------------------------------|
|------------------------------------------------|---------------------------------------|
|------------------------------------------------|---------------------------------------|
|------------------------------------------------|---------------------------------------|
|------------------------------------------------|---------------------------------------|
|--0------2--------0---2-0-(0)---0-2---0-------2-|--0----2-0---2---0-(0)----0-2-0------2-|


  F#5 G#5 F#5 G#F#5      G#5  F#5  G#5
  S S S S S S S S  S   S S  S S  S S  S
|---------------------------------------|
|-----------------16--16---16---16---16-|
|-2-4---4---4---4-16--16---16---16---16-|
|-2-4---4---4---4-----------------------|
|---------------------------------------|
|---------------------------------------|
|
| E   E   E   S S +S   S E    E    E
|---------------------------------------|
|---------------------------------------|
|---------------------------------------|
|---------------------------------------|
|-4---6---4---6-4-(4)--4-6----4----6----|
|-2---4---2---4-2-(2)--2-4----2----4----|


  F#5      G#5      F#5G#5   G5     F#5
                                     ~~~~~
   S     S  S  S     S  E.    Q      Q
|-------16----------16---------------------||
|-19b21----16-19b21----19b21-18b20--17b19--||
|------------------------------------------||
|------------------------------------------||
|------------------------------------------||
|------------------------------------------||
|
|  E        E        S  E.    Q      Q
|------------------------------------------||
|------------------------------------------||
|------------------------------------------||
|------------------------------------------||
|--4--------6--------4--6-----5------4-----||
|--2--------4--------2--4-----3------2-----||


  F                         G
   ~~~~~~~~~~~~~~~~~~~~~~~~~~~~~~~~~~
   Q            Q            +Q            E   S S
|--------------------------------------------------|
|--------------------------------------------------|
|-[9]b11-------[9]b11r======([9])b11-------7-------|
|----------------------------------------------5-5-|
|--------------------------------------------------|
|--------------------------------------------------|
|
|  S     S S S  S     S S S   S      S S S S S S S
|--------------------------------------------------|
|--------------------------------------------------|
|--------------------------------------------------|
|---------------3--------------------------5-------|
|--------------------------------------------------|
|--1-------1-1--------1---1---3--------3-3---3---3-|


  Am                                   F                     G
  ~~                  ~~~
  Q.           a S S +Q.         S S   E   S S S  S  E   S S S S S S S S
|------------------------------------|-------------------------------------|
|------------------------------------|-------------------------------------|
|------------------------------------|-------5---[5]p4---4s7---7-5---5-5---|
|-7----------------------------------|-----2---2-------------3-----3-------|
|--------------5S7-3-(3)-------------|-------------------------------------|
|--------------------------------3-3-|-1-----------------------------------|
|
| S  S S S +E    S S  E  S S +Q        S S S S S  S  S S S S S S S S S S
|------------------------------------|-------------------------------------|
|------------------------------------|-------------------------------------|
|-5------5-(5)--------5--7-5-(5)-----|-------------------------------------|
|-5------5-(5)--------5--7-5-(5)-----|---------3-----------------5---------|
|----0-0---------0-0-----------------|-------------------------------------|
|------------------------------------|-1---1-1----1----1-3---3-3---3---3---|


  Am
                             ~~~~~~~~~~~~
  +E    S S  S  S E    E  S  S      +Q
|------------------------17---------------|
|---------------------/x----20b22==(20)r--|
|-(5)-------------------------------------|
|-------7-5-------------------------------|
|------------7--6-5-----------------------|
|-----------------------------------------|
|
|  S  S S S +E    S S  E  S  S      +Q
|-----------------------------------------|
|-----------------------------------------|
|--5------5-(5)--------5--7--5------(5)---|
|--5------5-(5)--------5--7--5------(5)---|
|-----0-0---------0-0---------------------|
|-----------------------------------------|


  F                         G                          Am
                  ~~                        ~~~~                                ~~
                          |---3---|
   S  S  S  S  S  E    S  S  S    S  S  S  +Q            Q            +E.    S  H
|-------------12--------------------12---------------|---------------------------------------|
|-12h13p12-------13---12h13p12---------13-(13)-------|---------------------------------------|
|----------14--------------------14------------------|-[14]b16r======(14)---12---------------|
|----------------------------------------------------|-------------------------14------------|
|----------------------------------------------------|---------------------------------------|
|----------------------------------------------------|---------------------------------------|
|
|  S  S  S  S  S  S S  S  S    S     S  S   S  S S S     S     S S S  +E  S  S  E S S +Q
|----------------------------------------------------|---------------------------------------|
|----------------------------------------------------|---------------------------------------|
|----------------------------------------------------|---5---------5--(5)-------5-7-5-(5)----|
|--------------3----------------------------5--------|---5---------5--(5)-------5-7-5-(5)----|
|----------------------------------------------------|---------0-0--------0--0---------------|
|--1-----1--1-----1----1--3----------3--3------3---3-|---------------------------------------|


  F                G                    Am                        G C5
                 ~~~~~~                                            ~~~
  S S s S  S S S S +E    S S S E.       E   S S  S  S E   S S E S  E.
|-------------------------------------|-5-----------------8-8-----------||
|-----8-------------------------------|-5---8----5------------8-6-[6]---||
|-9-9---9-10-7-9s7-(7)---5-7-8-7------|-------7-----7-7-----------------||
|-------------------------------------|---------------------------------||
|-------------------------------------|---------------------------------||
|-------------------------------------|---------------------------------||
|
| S S S S  S S S S  S  S S S S S  S S   S S S S +E    S S E   E S  S  E
|-------------------------------------|---------------------------------||
|-------------------------------------|---------------------------------||
|-------------------------------------|-5-----5-(5)-------5---4-5--5----||
|----------3-----------------5--------|-5-----5-(5)-------5---5-5--5----||
|-------------------------------------|---0-0---------0-0-------3--3----||
|-1---1-1----1---1--3----3-3---3----3-|---------------------------------||


 Verse
  Em                                          D
  Gtrs I, II
  E S S +S  S E +H       E S S +S  S E +Q   S E.
|----------------------|-------------------------|
|----------------------|-------------------------|
|-----0-(0)------------|-----0-(0)---------------|
|---4-------4----------|---4-------4----------4--|
|-------------7-(7)----|-------------7-(7)--7-5--|
|-0--------------------|-0-----------------------|


  C                     Am                          B
  E S S +S  S E +Q   E. S   +E  S S +S  S E S S S S S E.
|-----3-(3)---------------|-------3-(3)--------------------|
|-----------3-------------|-------------0-----------0-0----|
|---5---------5-(5)--5----|-----5---------5-----5----------|
|-------------------------|-------------------5---5--------|
|-3---------------------0-|-(0)-------------0--------------|
|-------------------------|--------------------------------|


  Em                                          D
  E S S +S  S E +H       E S S +S  S E +Q   S E.
|----------------------|-------------------------|
|----------------------|-------------------------|
|-----0-(0)------------|-----0-(0)---------------|
|---4-------4----------|---4-------4----------4--|
|-------------7-(7)----|-------------7-(7)--7-5--|
|-0--------------------|-0-----------------------|


  C                     Am                          C5
                                                    Gtrs IV, V
  E S S +S  S E +Q   E. S   +E  S S +S  S E S S S S S E.
|-----3-(3)---------------|-------3-(3)--------------------||
|-----------3-------------|-------------0------------------||
|---5---------5-(5)--5----|-----5---------5-----5---5-5----||
|-------------------------|-------------------5---5-5-5----||
|-3---------------------0-|-(0)-------------0-------3-3----||
|-------------------------|--------------------------------||


 Pre-Chorus
  F               G                 Am
  S S S S S S S S S S S S S S S S   S S S S +E  S S E S S +Q
|---------------------------------|-----------------------------|
|---------------------------------|-----------------------------|
|---------------------------------|-5-----5-(5)-----5-7-5-(5)\--|
|---------3---------------5-------|-5-----5-(5)-----5-7-5-(5)\--|
|---------------------------------|---0-0-------0-0-------------|
|-1---1-1---1---1-3---3-3---3---3-|-----------------------------|
|
| W                                 W
|---------------------------------|-----------------------------|
|---------------------------------|-----------------------------|
|---------------------------------|-----------------------------|
|---------------------------------|-----------------------------|
|---------------------------------|-----------------------------|
|---------------------------------|-----------------------------|


  F               G                 Am
                                    Gtr IV
  S S S S S S S S S S S S S S S S   S S S S +E  S S E S S +Q
|---------------------------------|-------------------------------|
|---------------------------------|-------------------------------|
|---------------------------------|-5-----5-(5)-----5-7-5-(5)-----|
|---------3---------------5-------|-5-----5-(5)-----5-7-5-(5)-----|
|---------------------------------|---0-0-------0-0---------------|
|-1---1-1---1---1-3---3-3---3---3-|-------------------------------|
|
|                                   Gtr V
| W                                 H               Q      S   E.
|---------------------------------|-----------------------12--12--|
|---------------------------------|-----------------------13--13--|
|---------------------------------|-------------------------------|
|---------------------------------|-------------------------------|
|---------------------------------|-------------------------------|
|---------------------------------|-------------------------------|


  F                   G                 Am
    S   S S S S S S S S S S S S S S S   S S S S +E  S S E S S +Q
|-------------------------------------|----------------------------|
|-------------------------------------|----------------------------|
|-------------------------------------|-5-----5-(5)-----5-7-5-(5)--|
|-------------3---------------5-------|-5-----5-(5)-----5-7-5-(5)--|
|-------------------------------------|---0-0-------0-0------------|
|---1-----1-1---1---1-3---3-3---3---3-|----------------------------|
|
|  +H.                        Q         S S S S +E  S S E S S +Q
|-(12)\-------------------------------|----------------------------|
|-(13)\-------------------------------|----------------------------|
|-------------------------------------|-5-----5-(5)-----5-7-5-(5)--|
|-------------------------------------|-5-----5-(5)-----5-7-5-(5)--|
|-------------------------------------|---0-0-------0-0------------|
|-------------------------------------|----------------------------|


  F               G                 Am                G F5
  S S S S S S S S S S S S S S S S   S S S S +E  S S E E S S E
|---------------------------------|---------------------------||
|---------------------------------|---------------------------||
|---------------------------------|-5-----5-(5)-----5-4-------||
|---------3---------------5-------|-5-----5-(5)-----5-5-3-3---||
|---------------------------------|---0-0-------0-0-----3-3---||
|-1---1-1---1---1-3---3-3---3---3-|---------------------1-1---||
|
| S S S S S S S S S S S S S S S S   S S S S +E  S S E E S S E
|---------------------------------|---------------------------||
|---------------------------------|---------------------------||
|---------------------------------|-5-----5-(5)-----5-4-------||
|---------3---------------5-------|-5-----5-(5)-----5-5-3-3---||
|---------------------------------|---0-0-------0-0-----3-3---||
|-1---1-1---1---1-3---3-3---3---3-|---------------------1-1---||


 Out-Chorus
  E5G5F#F5E5    BbA5Bb5  E5G5F#F5E5
  Gtrs IV, V
  e e e S S +E  E S E.   e e e S S +E  S S S  E.
|----------------------|-------------------------|
|----------------------|-------------------------|
|----------------------|-------------------------|
|----------------------|-------------------2-[2]-|
|-2-5-4-3-2-(2)-8-7-8--|-2-5-4-3-2-(2)-----------|
|-0-3-2-1-0-(0)-6-5-6--|-0-3-2-1-0-(0)-3-4-------|


  E5G5F#F5E5    BbA5Bb5  N.C.            E5
                                 |-3-|
  e e e S S +E  E S E.   e e e e S S S S S +Q
|----------------------|--------------------------|
|----------------------|--------------------------|
|----------------------|--------------------------|
|----------------------|-----------------9-(9)----|
|-2-5-4-3-2-(2)-8-7-8--|-----------------7-(7)----|
|-0-3-2-1-0-(0)-6-5-6--|-3-5-3-5-6-5-3-0----------|


  E5  G5   F#5  F5 E5    Bb5A5 Bb5
  Gtr V
  e    e    e    S S +E   E  S  E.
|----------------------------------|
|----------------------------------|
|----------------------------------|
|----------------------------------|
|-2----5----4----3-2-(2)--8--7--8--|
|-0----3----2----1-0-(0)--6--5--6--|
|
| Gtr IV
| S S  S S  S S  S S +E   E  S  E.
|----------------------------------|
|------------------------11-10-11--|
|-9-9-12-9-11-9-10-9-(9)-----------|
|----------------------------------|
|----------------------------------|
|----------------------------------|


  E5  G5   F#5  F5 E5                  E5  G5   F#5  F5 E5    Bb5A5 Bb5
  e    e    e    S S +E  S S  S   E.   e    e    e    S S +E   E  S  E.
|------------------------------------|----------------------------------|
|------------------------------------|----------------------------------|
|------------------------------------|----------------------------------|
|-----------------------------2--[2]-|----------------------------------|
|-2----5----4----3-2-(2)-------------|-2----5----4----3-2-(2)--8--7--8--|
|-0----3----2----1-0-(0)-3-4---------|-0----3----2----1-0-(0)--6--5--6--|
|
| S S  S S  S S  S S +E  S S  S   E.   S S  S S  S S  S S +E   E  S  E.
|----------------------------12-[12]-|----------------------------------|
|------------------------8-9---------|------------------------11-10-11--|
|-9-9-12-9-11-9-10-9-(9)-------------|-9-9-12-9-11-9-10-9-(9)-----------|
|------------------------------------|----------------------------------|
|------------------------------------|----------------------------------|
|------------------------------------|----------------------------------|


  N.C.              G5  A5   G5  A5     G5  A5   G5  A5
                                                           |-3--|
  e    e   e    e   E    E   E    E     E    E   E    E    S  S S S S +Q
|-------------------------------------|-------------------------------------|
|-------------------------------------|-------------------------------------|
|-------------------------------------|-------------------------------------|
|-------------------------------------|-----------------------------2-(2)---|
|-------------------5----7---5----7---|-5----7---5----7---------------------|
|-3----5---3----5---3----5---3----5---|-3----5---3----5----6--5-3-0---------|
|
|                                                          |-3--|
| S S  S S S S  S S S S  S S S S  S S   S S  S S S S  S S  S  S S S S +Q
|-------------------------------------|-------------------------------------|
|-8---10---8---10---8---10---8---10---|-8---10---8---10---11p10p8---8-(8)---|
|---9----9---9----9---9----9---9----9-|---9----9---9----9---------9---------|
|-------------------------------------|-------------------------------------|
|-------------------------------------|-------------------------------------|
|-------------------------------------|-------------------------------------|


  Q=100
  E5
   W
|--------------------------------------------------------------------|
|--------------------------------------------------------------------|
|--------------------------------------------------------------------|
|--------------------------------------------------------------------|
|--2-----------------------------------------------------------------|
|--0-----------------------------------------------------------------|
|
|               |--3--|                          |--------7--------|
|  Q      S  S  S  S  S  T  T  T  T  T  T  T  T  S  S  S  S  S  S  S
|--------12----------------------------------------------------------|
|-15b17-----15-14-12----12-------------------------------------------|
|--------------------14----14p12-14-15-14-12----12-13----------------|
|--------------------------------------------14-------14-12-14-12----|
|-----------------------------------------------------------------14-|
|--------------------------------------------------------------------|


 9/8
  +W                                                               +E
|--------------------------------------------------------------------------|
|--------------------------------------------------------------------------|
|--------------------------------------------------------------------------|
|--------------------------------------------------------------------------|
|-(2)--------------------------------------------------------------(2)-----|
|-(0)--------------------------------------------------------------(0)-----|
|
|                                                              |---3---|
|  T   T  T  T  T  T  T  T  T  T  T  T  S  S  S  S  S  S  S  S E E     E
|--------------------------------------------------------------------------|
|--------------------------------------------------------------------------|
|-12-----------12----------------------------------------------------------|
|-----14p12-------14p12----12h14p12----12----------------------------------|
|-----------14----------14----------14----14-13-12-11----------------------|
|-----------------------------------------------------12-10-12-7-5-----4---|


 4/4
  +W
|-----------------------------------------*|
|-----------------------------------------*|
|-----------------------------------------*|
|-----------------------------------------*|
|-(2)-------------------------------------*|
|-(0)-------------------------------------*|
|
|  |-3-|                       |-3-|
|  S S S S +S  T T T T T T T T E E E E E
|-----------------------------------------*|
|-----------------------------------------*|
|-----------------------------------------*|
|-----------------------------------------*|
|-----------------------------------------*|
|--2h4p2-0-(0)-x-x-x-x-x-x-x-x-x-x-x-x-x\-*|



Duration Legend
---------------
W - whole; H - half; Q - quarter; E - 8th; S - 16th; T - 32nd; X - 64th; a - acciaccatura
+ - note tied to previous; . - note dotted; .. - note double dotted
Uncapitalized letters represent notes that are staccato (1/2 duration)
Irregular groupings are notated above the duration line
Duration letters will always appear directly above the note/fret number it represents the
duration for.  Duration letters with no fret number below them represent rests.  Multi-
bar rests are notated in the form Wxn, where n is the number of bars to rest for.  Low
melody durations appear below the staff

Tablature Legend
----------------
 h   - hammer-on
 p   - pull-off
 b   - bend
 pb  - pre-bend
 r   - bend release (if no number after the r, then release immediately)
 /\  - slide into or out of (from/to "nowhere")
 s   - legato slide
 S   - shift slide
 - natural harmonic
[n]  - artificial harmonic
n(n) - tapped harmonic
 ~   - vibrato
 tr  - trill
 T   - tap
 TP  - trem. picking
 PM  - palm muting
\n/  - tremolo bar dip; n = amount to dip
 \n  - tremolo bar down
 n/  - tremolo bar up
/n\  - tremolo bar inverted dip
 =   - hold bend; also acts as connecting device for hammers/pulls
 <> - volume swell (louder/softer)
 x   - on rhythm slash represents muted slash
 o   - on rhythm slash represents single note slash

Misc Legend
-----------
 |  - bar
||  - double bar
||o - repeat start
o|| - repeat end
*|  - double bar (ending)
 :  - bar (freetime)
 $  - Segno
 &  - Coda
Tempo markers -  = BPM(8/16=s8/s16), where s8 = swing 8ths, s16 = swing 16ths

Добавлено: 28.05.2012
Другие материалы по этой песне:

Страница создана 23.02.2012
http://primanota.ru/annihilator/snake-in-the-grass-chords.htm
Привет, Гость.
Предлагаем пройти революционный курс по гитаре.
Подарок от PrimaNota.Ru, забирай!