PrimaNota.ru - самый крупный в мире бесплатный архив песенных текстов, аккордов, табулатур и нот


Annihilator - Set The World On Fire - текст песни, таба, видео

Регистрация Запомнить меня
Войти через:  Facebook Google Twitter Vk Yandex Mail.ru

Annihilator - Set The World On Fire - текст песни, таба, видео

Печатать
Просмотров: 162
Annihilator - Set The World On Fire

tabbed by
ol753_2000@yahoo.co.uk

Tuning - E A D G B E


Both Gtrs (fade in)
|-5-----------------0-----0-----0-----0---------|
|---0-------------3---3-----3-----3-----8-------|
|-----5---------5-------5-----5-----5-----10----|
|-----------------------------------------------|
|-------------0---------------------------------|
|-----------------------------------------------|


|--------0---------------------|
|------8---8----------8--------|
|---10-------10-----0---0------|
|-0---------------8-------8----|
|---------------6--------------|
|------------------------------|


(last time)
|-5-----------------0-----0-----0-----0---------|
|---0-------------3---3-----3-----3-----8-------|
|-----5---------5-------5-----5-----5-----10----|
|-----------------------------------------------|
|-------------0---------------------------------|
|-----------------------------------------------|


|--------0-----------------|
|------8---8----------8----|
|---10-------10-----0------|
|-0---------------8--------|
|---------------6----------|
|--------------------------|


Both Gtrs
play twice
  PM------------------------------------------------------------------------|
|---------------------------------------------------------------------------|
|---------------------------------------------------------------------------|
|---------------------------------------------------------------------------|
|---------------------------------------------------------------------------|
|---------------------------------------------------------------------------|
|-0-0-0-0-0-0-0-<3>--<3>-<3>--<3>--0-0-0-0-0-0-0-0-0-<3>--<3>-<3>--<3>------|


Both Gtrs
play twice
  PM--------------------------------------------------------|
|-----------------------------------------------------------|
|-----------------------------------------------------------|
|-----------------------------------------------------------|
|-----------------------------------------------------------|
|-----------------------------------------------------------|
|-0-0-0-0-0-0-0-0--0-0--0--0-0-0-0-0-0-0-0-0-0--0-0--0------|


Verse
Gtr 1
play 3 times
  PM--------------------------------------------------------|
|-----------------------------------------------------------|
|-----------------------------------------------------------|
|-----------------------------------------------------------|
|-----------------------------------------------------------|
|-----------------------------------------------------------|
|-0-0-0-0-0-0-0-0--0-0--0--0-0-0-0-0-0-0-0-0-0--0-0--0------|


4th time
  PM-------------------------------------------|
|----------------------------------------------|
|------------------------------3--------3------|
|------------------------------0--------2------|
|------------------------------2--------0------|
|------------------------------3--------0------|
|-0-0-0-0-0-0-0-0--0-0--0--0-0-----------------|


Gtr 2
(suggested chord formations tabbed)
  E              F
|---------------------|
|---------------------|
|-4--------------5----|
|-2--------------3----|
|-2--------------3----|
|-0-------------------|

  A              G           D
|---------------------------------|
|----------------------------3----|
|-2--------------0-----------2----|
|-2--------------0-----------0----|
|-0--------------2-----------0----|
|----------------3----------------|

  E              F
|---------------------|
|---------------------|
|-4--------------5----|
|-2--------------3----|
|-2--------------3----|
|-0-------------------|

  A              C           D
|---------------------------------|
|----------------3-----------3----|
|-2--------------0-----------2----|
|-2--------------2-----------0----|
|-0--------------3-----------0----|
|---------------------------------|


Chorus
Both Gtrs
play 3 times
              PM--|   PM    PM    PM|
|--0--0--0--0----------------------------|
|-12-12-12-12----------------------------|
|-10-10-10-10----------------------------|
|----------------------------------------|
|-------------------3---8S7---5S6--------|
|-------------0-0-0-1-0-6S5-0-3S4-0-0----|

4th time
              PM--|   PM    PM
|--0--0--0--0----------------------------|
|-12-12-12-12----------------------------|
|-10-10-10-10----------------------------|
|----------------------------------------|
|-------------------3---8S7---5S6--------|
|-------------0-000-1-0-6S5-0-3S4-\------|


Both Gtrs
play twice
  PM--------------------------------------------------------|
|-----------------------------------------------------------|
|-----------------------------------------------------------|
|-----------------------------------------------------------|
|-----------------------------------------------------------|
|-----------------------------------------------------------|
|-0-0-0-0-0-0-0-0--0-0--0--0-0-0-0-0-0-0-0-0-0--0-0--0------|


Repeat Verse
Repeat Chorus


Gtr 1
              PM--|   PM    PM    PM|
|--0--0--0--0----------------------------|
|-12-12-12-12----------------------------|
|-10-10-10-10----------------------------|
|----------------------------------------|
|-------------------3---8S7---5S6--------|
|-------------0-0-0-1-0-6S5-0-3S4-0-0----|


Gtr 2
              PM--|   PM    PM    PM|
|--0--0--0--0----------------------------|
|-15-15-15-15----------------------------|
|-13-13-13-13----------------------------|
|----------------------------------------|
|-------------------3---8S7---5S6--------|
|-------------0-0-0-1-0-6S5-0-3S4-0-0----|


Both Gtrs
play twice
              PM--|   PM    PM    PM|
|--0--0--0--0----------------------------|
|-12-12-12-12----------------------------|
|-10-10-10-10----------------------------|
|----------------------------------------|
|-------------------3---8S7---5S6--------|
|-------------0-0-0-1-0-6S5-0-3S4-0-0----|


Gtr 1
              PM--|   PM    PM    PM|
|--0--0--0--0----------------------------|
|-12-12-12-12----------------------------|
|-10-10-10-10----------------------------|
|----------------------------------------|
|-------------------3---8S7---5S6--------|
|-------------0-0-0-1-0-6S5-0-3S4-0-0----|


Gtr 2
              PM--|   PM    PM    PM|
|--0--0--0--0----------------------------|
|-15-15-15-15----------------------------|
|-13-13-13-13----------------------------|
|----------------------------------------|
|-------------------3---8S7---5S6--------|
|-------------0-0-0-1-0-6S5-0-3S4-0-0----|


Both Gtrs
play twice
|-------------------------------------|
|-------------------------------------|
|-2-----------------------------------|
|-2-----------------------------------|
|-0-----------------------------------|
|-------------------------------------|


|----------------------------------------|
|-3--------------------------3-----------|
|-2--------------------------2------0----|
|-0--------------------------0------0----|
|-0----------------3---------0------2----|
|------------------1----------------3----|


Gtr 3
play twice
|----------------------------------------------------|
|-------0--------------------0-------0------0--------|
|-----5----5---------------5----5------5------5------|
|---7--------------------7--------7------7------7----|
|-0--------------------0-----------------------------|
|----------------------------------------------------|


|--------0----------------0-------0--------------0----------|
|------8----8-----------8-------6----6---------6---------0--|
|---10---------------10-------5--------5-----5---------0----|
|-0----------------0--------3--------------3---------0------|
|-----------------------------------------------------------|
|--------------------------------------------------3--------|


Both Gtrs
play twice
       PM|   PM|                     PM|
|-----------------------------------------------------------------|
|-----------------------------------------------------------------|
|-----------------------------------------------------------------|
|-5--------5-----5------0-5-4-0-5--------5-----8-7---------5-4----|
|-3--0-0-0-3-0-0-3--0-3---------3--0-0-0-3-0-6-----5-0-3-4--------|
|-----------------------------------------------------------------|


Gtr 3
|----------------------------------------------------12---------------------------------------------------------|
|-12--------------------12--12--------------15b17-------15p12----15---------12h15p12----12----------------------|
|-12--------------------12--12--------------------------------14-----14b16-----------15----15-12h15p12--[12]----|
|-------14p12-[14]-------------14p12-14-------------------------------------------------------------------------|
|---------------------------------------------------------------------------------------------------------------|
|---------------------------------------------------------------------------------------------------------------|


|------------------------------------------------------------------------------------------|
|---------12--15p12---------12h15p12----12h15p12----12h15p12----12h15p12----12h15p12-------|
|-14b16-------------14b16------------14----------14----------14----------14----------14----|
|------------------------------------------------------------------------------------------|
|------------------------------------------------------------------------------------------|
|------------------------------------------------------------------------------------------|


                                                            PM---------------------------|
|-12----------12----------12-------------------------------------------------------------|
|----15p12-------15p12-------15p12-14--14--12------12--12--------------------------------|
|----------14----------14----------14--14--12------12--12--------------------------------|
|----------------------------------------------14----------14--12------------------------|
|------------------------------------------------------------------14--13--12------------|
|------------------------------------------------------------------------------15--12----|


Both Gtrs
     PM|   PM|    PM-----------------------------------------------|
|------------------------------------------------------------------|
|------------------------------------------------------------------|
|------------------------------------------------------------------|
|------------------------------------------------------------------|
|-5------5-----5------------------------------8-7---------5-4------|
|-3--0-0-3-0-0-3---0-0-0-00-0-0-0-0-0-0-0-0-6-----5-0-3-4----------|


       PM|   PM|      PM----------------------------------------------|
|---------------------------------------------------------------------|
|---------------------------------------------------------------------|
|---------------------------------------------------------------------|
|---------------------------------------------------------------------|
|-5--------5-----5-------------------------------8-7---------5-4------|
|-3--0-0-0-3-0-0-3---0-0-0-0-00-0-0-00-0-0-0-0-6-----5-0-3-4----------|


Both Gtrs
       PM|   PM|                     PM|
|-----------------------------------------------------------------|
|-----------------------------------------------------------------|
|-----------------------------------------------------------------|
|-----------------------------------------------------------------|
|-5--------5-----5------0-5-4-0-5--------5------8-7---------5-4---|
|-3--0-0-0-3-0-0-3--0-3---------3--0-0-0-3--0-6-----5-0-3-4-------|


       PM|   PM|                     PM|
|------------------------------------------------------------------------------------|
|------------------------------------------------------------------------------------|
|------------------------------------------------------------------------------------|
|------------------------------------------------------------------------------------|
|-5--------5-----5------0-5-4-0-5--------5------8-7---------5-4-----------3-3-2-1----|
|-3--0-0-0-3-0-0-3--0-3---------3--0-0-0-3--0-6-----5-0-3-4-----3-2-0-1-2------------|


Gtr 1, Gtr 2 plays same an octave higher
|----------------------------------|
|----------------------------------|
|-----3-3-----1-1-----9S7----------|
|-2-4-----0-2-----0-7-----5-0------|
|-----------------------------3S4--|
|----------------------------------|


Both Gtrs
  PM|   PM|      PM|           PM----|   PM|      PM|           PM----|   PM|      PM------------|
|------------------------------------------------------------------------------------------------|
|------------------------------------------------------------------------------------------------|
|-----7-----12-------7--12-12----------7-----12-------7--12-12----------7-----12-------7--12-12--|
|-----5-----10-------5--10-10----------5-----10-------5--10-10----------5-----10-------5--10-10--|
|-----3------8-------3---8--8----------3------8-------3---8--8----------3------8-------3---8--8--|
|-0-0---0-0------0-0-----------0-0-0-0---0-0------0-0-----------0-0-0-0---0-0------0-0-----------|


  PM----|
|------------|
|------------|
|------------|
|------------|
|------------|
|-0-3-2-1----|


Repeat Verse


Chorus
Both Gtrs
play 3 times
              PM--|   PM    PM    PM|
|--0--0--0--0----------------------------|
|-12-12-12-12----------------------------|
|-10-10-10-10----------------------------|
|----------------------------------------|
|-------------------3---8S7---5S6--------|
|-------------0-0-0-1-0-6S5-0-3S4-0-0----|

4th time
              PM--|   PM    PM
|--0--0--0--0----------------------------|
|-12-12-12-12----------------------------|
|-10-10-10-10----------------------------|
|----------------------------------------|
|-------------------3---8S7---5S6--------|
|-------------0-000-1-0-6S5-0-3S4-\------|


Gtr 1
repeat to fade
              PM--|   PM    PM    PM|
|--0--0--0--0----------------------------|
|-12-12-12-12----------------------------|
|-10-10-10-10----------------------------|
|----------------------------------------|
|-------------------3---8S7---5S6--------|
|-------------0-0-0-1-0-6S5-0-3S4-0-0----|

              PM--|   PM    PM    PM|
|--0--0--0--0----------------------------|
|-12-12-12-12----------------------------|
|-10-10-10-10----------------------------|
|----------------------------------------|
|-------------------3---8S7---5S6--------|
|-------------0-000-1-0-6S5-0-3S4-0-0----|

Gtr 2
repeat to fade
              PM--|   PM    PM    PM|
|--0--0--0--0----------------------------|
|-15-15-15-15----------------------------|
|-13-13-13-13----------------------------|
|----------------------------------------|
|-------------------3---8S7---5S6--------|
|-------------0-0-0-1-0-6S5-0-3S4-0-0----|

              PM--|   PM    PM    PM|
|--0--0--0--0----------------------------|
|-15-15-15-15----------------------------|
|-13-13-13-13----------------------------|
|----------------------------------------|
|-------------------3---8S7---5S6--------|
|-------------0-000-1-0-6S5-0-3S4-0-0----|

Tablature Legend
----------------
 h   - hammer-on
 p   - pull-off
 b   - bend
 pb  - pre-bend
 r   - bend release (if no number after the r, then release immediately)
 /\  - slide into or out of (from/to "nowhere")
 s   - legato slide
 S   - shift slide
  - natural harmonic
[n]  - artificial harmonic
n(n) - tapped harmonic
 ~   - vibrato
 tr  - trill
 T   - tap
 TP  - trem. picking
 PM  - palm muting
\n/  - tremolo bar dip; n = amount to dip
 \n  - tremolo bar down
 n/  - tremolo bar up
/n\  - tremolo bar inverted dip
 =   - hold bend; also acts as connecting device for hammers/pulls
 <>  - volume swell (louder/softer)
 x   - on rhythm slash represents muted slash
 o   - on rhythm slash represents single note slash

Misc Legend
-----------
 |  - bar
||  - double bar
||o - repeat start
o|| - repeat end
*|  - double bar (ending)
 :  - bar (freetime)
 $  - Segno
 &  - Coda
Tempo markers -  = BPM(8/16=s8/s16), where s8 = swing 8ths, s16 = swing 16ths
Добавлено: 03.07.2012
Другие материалы по этой песне:

Страница создана 31.03.2012
http://primanota.ru/annihilator/set-the-world-on-fire-chords.htm
Привет, Гость.
Предлагаем пройти революционный курс по гитаре.
Подарок от PrimaNota.Ru, забирай!