PrimaNota.ru - самый крупный в мире бесплатный архив песенных текстов, аккордов, табулатур и нот


Annihilator - Ritual - текст песни, таба, видео

Регистрация Запомнить меня
Войти через:  Facebook Google Twitter Vk Yandex Mail.ru

Annihilator - Ritual - текст песни, таба, видео

Печатать
Просмотров: 128
Авторы музыки: Jeff Waters
Авторы текста: Jeff Waters, Joe Comeau
Posted By: Annihilator666

Transcribed by: ol753_357lo@yahoo.co.uk

Tuning - D A D G B E


Gtr 1
play 4 times, Gtr 2 joins 3rd time
  PM|   PM  PM    PM|   PM  PM
|------------------------------------|
|------------------------------------|
|------------------------------------|
|------------------------------------|
|-----3---5---3-0-----3---5---6-3----|
|-0-0-3-0-5-0-3-0-0-0-3-0-5-0-6-3----|


Both Gtrs
play 3 times
  PM|   PM  PM    PM|   PM  PM
|------------------------------------|
|------------------------------------|
|------------------------------------|
|------------------------------------|
|-----3---5---3-0-----3---5---6-3----|
|-0-0-3-0-5-0-3-0-0-0-3-0-5-0-6-3----|


4th time
  PM|   PM  PM    PM    PM
|------------------------------------|
|------------------------------------|
|------------------------------------|
|------------------------------------|
|-----3---5---3-0---3-3---3-2-1-0----|
|-0-0-3-0-5-0-3-0-0-3-3-0-3-2-1-0----|


play above twice


Gtr 3
play twice
|-10-10-10-10-10-10-10-10-10-10-10-10-10-10-10-10-10-10-10-10-10-10-10-10-10-10-10-10-10-10-10-10----|
|-13-13-13-13-13-13-13-13-13-13-13-13-13-13-13-13-12-12-12-12-12-12-12-12-12-12-12-12-12-12-12-12----|
|----------------------------------------------------------------------------------------------------|
|----------------------------------------------------------------------------------------------------|
|----------------------------------------------------------------------------------------------------|
|----------------------------------------------------------------------------------------------------|


|-10-10-10-10-10-10-10-10-10-10-10-10-10-10-10-10-10-10-10-10-10-10-10-10-10-10-10-10-10-10-10-10----|
|-11-11-11-11-11-11-11-11-11-11-11-11-11-11-11-11-10-10-10-10-10-10-10-10-10-10-10-10-10-10-10-10----|
|----------------------------------------------------------------------------------------------------|
|----------------------------------------------------------------------------------------------------|
|----------------------------------------------------------------------------------------------------|
|----------------------------------------------------------------------------------------------------|


Verse
Both Gtrs
play twice
  PM--------------------------|     PM  PM|       PM-----------------------|     PM  PM|
|----------------------------------------------------------------------------------------------|
|----------------------------------------------------------------------------------------------|
|----------------------------------------------------------------------------------------------|
|----------------------------------------------------------------------------------------------|
|-------------------------------3-3---3-----10-0-----------------------------3-3---3-----10-0--|
|-0--0-0-0--0-0-0--0-0-0--0-0-0-3-3-0-3-0-0-10-0--0-0-0--0-0-0--0-0-0--0-0-0-3-3-0-3-0-0-10-0--|


   PM--------------------------|     PM  PM|
|---------------------------------------------------|
|---------------------------------------------------|
|---------------------------------------------------|
|---------------------------------------------------|
|--------------------------------3-3---3-----10-12--|
|--0--0-0-0--0-0-0--0-0-0--0-0-0-3-3-0-3-0-0-10-12--|


  PM-----------------------------------------------------|
|-------------------------------------------------------------|
|-------------------------------------------------------------|
|-------------------------------------------------------------|
|-------------------------------------------------------------|
|-------------------------------------------------------------|
|-0-0-0--0-0-0--0-0-0--0-0-6-5-3-0-5-6-8-0-9-8-6-0-5-6-8-0----|


Chorus
Both Gtrs
play 3 times
  PM|   PM  PM    PM|   PM  PM
|------------------------------------|
|------------------------------------|
|------------------------------------|
|------------------------------------|
|-----3---5---3-0-----3---5---6-3----|
|-0-0-3-0-5-0-3-0-0-0-3-0-5-0-6-3----|


4th time
  PM|   PM  PM    PM    PM
|------------------------------------|
|------------------------------------|
|------------------------------------|
|------------------------------------|
|-----3---5---3-0---3-3---3-2-1-0----|
|-0-0-3-0-5-0-3-0-0-3-3-0-3-2-1-0----|


Repeat Verse


Chorus
Both Gtrs
play 3 times
  PM|   PM  PM    PM|   PM  PM
|------------------------------------|
|------------------------------------|
|------------------------------------|
|------------------------------------|
|-----3---5---3-0-----3---5---6-3----|
|-0-0-3-0-5-0-3-0-0-0-3-0-5-0-6-3----|


4th time
  PM|   PM  PM    PM    PM
|------------------------------------|
|------------------------------------|
|------------------------------------|
|------------------------------------|
|-----3---5---3-0---3-3---3-2-1-0----|
|-0-0-3-0-5-0-3-0-0-3-3-0-3-2-1-0----|


play above twice


Gtr 3
play twice
|-10-10-10-10-10-10-10-10-10-10-10-10-10-10-10-10-10-10-10-10-10-10-10-10-10-10-10-10-10-10-10-10----|
|-13-13-13-13-13-13-13-13-13-13-13-13-13-13-13-13-12-12-12-12-12-12-12-12-12-12-12-12-12-12-12-12----|
|----------------------------------------------------------------------------------------------------|
|----------------------------------------------------------------------------------------------------|
|----------------------------------------------------------------------------------------------------|
|----------------------------------------------------------------------------------------------------|


|-10-10-10-10-10-10-10-10-10-10-10-10-10-10-10-10-10-10-10-10-10-10-10-10-10-10-10-10-10-10-10-10----|
|-11-11-11-11-11-11-11-11-11-11-11-11-11-11-11-11-10-10-10-10-10-10-10-10-10-10-10-10-10-10-10-10----|
|----------------------------------------------------------------------------------------------------|
|----------------------------------------------------------------------------------------------------|
|----------------------------------------------------------------------------------------------------|
|----------------------------------------------------------------------------------------------------|


Both Gtrs
           PM----|   PM                       PM----|   PM    PM
|-------------------------------------------------------------------------|
|-------------------------------------------------------------------------|
|-------------------------------------------------------------------------|
|-15-14-15---------------------------15-14-15-----------------------------|
|-12-12-12---------5---5-3---10--10--12-12-12---------5---5-3---13--13----|
|-12-12-12-0-0-0-0-5-0-5-3-0-10--10--12-12-12-0-0-0-0-5-0-5-3-0-13--13----|


           PM----|   PM
|---------------------------------------------------------------------------------------|
|---------------------------------------------------------------------------------------|
|---------------------------------------------------------------------------------------|
|-15-14-15---------------------------14S12-12-12-12-12-12-12-12S14-14-14-14-14-14-14----|
|-12-12-12---------5---5-3---10--10--10S=8--8--8--8--8--8--8--8S10-10-10-10-10-10-10----|
|-12-12-12-0-0-0-0-5-0-5-3-0-10--10--10S=8--8--8--8--8--8--8--8S10-10-10-10-10-10-10----|


Both Gtrs
           PM----|   PM                       PM----|   PM    PM
|-------------------------------------------------------------------------|
|-------------------------------------------------------------------------|
|-------------------------------------------------------------------------|
|-15-14-15---------------------------15-14-15-----------------------------|
|-12-12-12---------5---5-3---10--10--12-12-12---------5---5-3---13--13----|
|-12-12-12-0-0-0-0-5-0-5-3-0-10--10--12-12-12-0-0-0-0-5-0-5-3-0-13--13----|


           PM----|   PM
|---------------------------------------------------------------------------------------|
|---------------------------------------------------------------------------------------|
|---------------------------------------------------------------------------------------|
|-15-14-15---------------------------14S12-12-12-12-12-12-12-12S14-14-14-14-14-14-14----|
|-12-12-12---------5---5-3---10--10--10S=8--8--8--8--8--8--8--8S10-10-10-10-10-10-10----|
|-12-12-12-0-0-0-0-5-0-5-3-0-10--10--10S=8--8--8--8--8--8--8--8S10-10-10-10-10-10-10----|


Gtr 3
           PM--|
|------------------------------------------------------------|
|------------------------------------------------------------|
|------------------------------------------------------------|
|-------5---------------------------5------------------------|
|-5-7-8----8-7-8--7-5-7--5-3--5-7-8----8-7-8--7h8p7p5-3-6----|
|------------------------------------------------------------|


|----------------------------------------------------|
|----------------------------------------------------|
|-----------------------------7--9--9S10--9--7--5----|
|-------7--------------------------------------------|
|-5-7-8----8-7-8--7-5-7--5-3--5--7--7S=8--7--5--3----|
|----------------------------------------------------|


Both Gtrs
play twice
           PM----|   PM                       PM----|   PM    PM
|-------------------------------------------------------------------------|
|-------------------------------------------------------------------------|
|-------------------------------------------------------------------------|
|-15-14-15---------------------------15-14-15-----------------------------|
|-12-12-12---------5---5-3---10--10--12-12-12---------5---5-3---13--13----|
|-12-12-12-0-0-0-0-5-0-5-3-0-10--10--12-12-12-0-0-0-0-5-0-5-3-0-13--13----|


           PM----|   PM
|---------------------------------------------------------------------------------------|
|---------------------------------------------------------------------------------------|
|---------------------------------------------------------------------------------------|
|-15-14-15---------------------------14S12-12-12-12-12-12-12-12S14-14-14-14-14-14-14----|
|-12-12-12---------5---5-3---10--10--10S=8--8--8--8--8--8--8--8S10-10-10-10-10-10-10----|
|-12-12-12-0-0-0-0-5-0-5-3-0-10--10--10S=8--8--8--8--8--8--8--8S10-10-10-10-10-10-10----|


Gtr 3
play twice
           PM--|
|------------------------------------------------------------|
|------------------------------------------------------------|
|------------------------------------------------------------|
|-------5---------------------------5------------------------|
|-5-7-8----8-7-8--7-5-7--5-3--5-7-8----8-7-8--7h8p7p5-3-6----|
|------------------------------------------------------------|


|----------------------------------------------------|
|----------------------------------------------------|
|-----------------------------7--9--9S10--9--7--5----|
|-------7--------------------------------------------|
|-5-7-8----8-7-8--7-5-7--5-3--5--7--7S=8--7--5--3----|
|----------------------------------------------------|


Gtr 4
play twice
|---------------------------------------------------------------|
|---5-6-6h8--6-5-6--5---5---------5-6-6h8--6-5-6--5h6p5---------|
|-7-------------------7----7-5--7-----------------------7-5-8---|
|---------------------------------------------------------------|
|---------------------------------------------------------------|
|---------------------------------------------------------------|


|---------------------------------|
|---5-6-6h8--6-5-6--5---5---------|
|-7-------------------7----7-5----|
|---------------------------------|
|---------------------------------|
|---------------------------------|


            PM---|            PM---|            PM---|            PM---|            PM---|
|-------------------------------------------------------10h13p10----------10h12p10----------10h13p10---|
|-10h11p10----------10h13p10----------10h11p10---------------------------------------------------------|
|------------------------------------------------------------------------------------------------------|
|----------12-10-12----------12-10-12----------12-10-12----------12-10-12----------12-10-12------------|
|------------------------------------------------------------------------------------------------------|
|------------------------------------------------------------------------------------------------------|


Gtr 5
play twice
|--------------------------------------------------------------------------------|
|----8-10-10h11--10-8-10--8----8-----------8-10-10h11--10-8-10--8h10p8-----------|
|-10------------------------10----10-9--10-----------------------------10-9-12---|
|--------------------------------------------------------------------------------|
|--------------------------------------------------------------------------------|
|--------------------------------------------------------------------------------|


|-----------------------------------------|
|----8-10-10h11--10-8-10--8----8----------|
|-10------------------------10----10-9----|
|-----------------------------------------|
|-----------------------------------------|
|-----------------------------------------|


            PM---|            PM---|            PM---|            PM---|            PM---|
|-------------------------------------------------------10h13p10----------10h12p10----------10h13p10---|
|-10h11p10----------10h13p10----------10h11p10---------------------------------------------------------|
|------------------------------------------------------------------------------------------------------|
|----------12-10-12----------12-10-12----------12-10-12----------12-10-12----------12-10-12------------|
|------------------------------------------------------------------------------------------------------|
|------------------------------------------------------------------------------------------------------|


Gtr 3
|-10-------|
|-13b15----|
|----------|
|----------|
|----------|
|----------|


Gtr 4
|-13-------|
|-16b18----|
|----------|
|----------|
|----------|
|----------|


Gtr 5
|-17-------|
|-20b22----|
|----------|
|----------|
|----------|
|----------|


Gtr 2, Gtr 1 slowly slides down
  PM------|     PM  PM  PM        PM------|     PM  PM
|------------------------------------------------------------|
|------------------------------------------------------------|
|------------------------------------------------------------|
|------------------------------------------------------------|
|-----------2S3---6---5-3---3-5-------------2S3---6---6-5----|
|-0-0-0-0-0-2S3-0-6-0-5-3-0-3-5---0-0-0-0-0-2S3-0-6-0-6-5----|


  PM------|     PM  PM    PM      PM------|     PM  PM
|------------------------------------------------------------|
|------------------------------------------------------------|
|------------------------------------------------------------|
|------------------------------------------------------------|
|-----------2S3---6---6-5---3-5-------------2S3---6---6-5----|
|-0-0-0-0-0-2S3-0-6-0-6-5-0-3-5---0-0-0-0-0-2S3-0-6-0-6-5----|


Both Gtrs
  PM------|     PM  PM  PM        PM------|     PM  PM
|------------------------------------------------------------|
|------------------------------------------------------------|
|------------------------------------------------------------|
|------------------------------------------------------------|
|-----------2S3---6---5-3---3-5-------------2S3---6---6-5----|
|-0-0-0-0-0-2S3-0-6-0-5-3-0-3-5---0-0-0-0-0-2S3-0-6-0-6-5----|


  PM------|     PM  PM    PM      PM------|     PM  PM
|------------------------------------------------------------|
|------------------------------------------------------------|
|------------------------------------------------------------|
|------------------------------------------------------------|
|-----------2S3---6---6-5---3-5-------------2S3---6---6-5----|
|-0-0-0-0-0-2S3-0-6-0-6-5-0-3-5---0-0-0-0-0-2S3-0-6-0-6-5----|


Gtr 1
play 4 times
|-------------------------------------|
|-------------------------------------|
|-------------------------------------|
|-------------------------------------|
|-0---------2----------3---------5----|
|-0---------2----------3---------5----|


Gtr 2
play twice
  PM------|     PM  PM  PM        PM------|     PM  PM
|------------------------------------------------------------|
|------------------------------------------------------------|
|------------------------------------------------------------|
|------------------------------------------------------------|
|-----------2S3---6---5-3---3-5-------------2S3---6---6-5----|
|-0-0-0-0-0-2S3-0-6-0-5-3-0-3-5---0-0-0-0-0-2S3-0-6-0-6-5----|


  PM------|     PM  PM    PM      PM------|     PM  PM
|------------------------------------------------------------|
|------------------------------------------------------------|
|------------------------------------------------------------|
|------------------------------------------------------------|
|-----------2S3---6---6-5---3-5-------------2S3---6---6-5----|
|-0-0-0-0-0-2S3-0-6-0-6-5-0-3-5---0-0-0-0-0-2S3-0-6-0-6-5----|


Both Gtrs
play twice
  PM------|     PM  PM  PM        PM------|     PM  PM
|------------------------------------------------------------|
|------------------------------------------------------------|
|------------------------------------------------------------|
|------------------------------------------------------------|
|-----------2S3---6---5-3---3-5-------------2S3---6---6-5----|
|-0-0-0-0-0-2S3-0-6-0-5-3-0-3-5---0-0-0-0-0-2S3-0-6-0-6-5----|


  PM------|     PM  PM    PM      PM------|     PM  PM
|------------------------------------------------------------|
|------------------------------------------------------------|
|------------------------------------------------------------|
|------------------------------------------------------------|
|-----------2S3---6---6-5---3-5-------------2S3---6---6-5----|
|-0-0-0-0-0-2S3-0-6-0-6-5-0-3-5---0-0-0-0-0-2S3-0-6-0-6-5----|


Both Gtrs
play twice
           PM----|   PM                       PM----|   PM    PM
|-------------------------------------------------------------------------|
|-------------------------------------------------------------------------|
|-------------------------------------------------------------------------|
|-15-14-15---------------------------15-14-15-----------------------------|
|-12-12-12---------5---5-3---10--10--12-12-12---------5---5-3---13--13----|
|-12-12-12-0-0-0-0-5-0-5-3-0-10--10--12-12-12-0-0-0-0-5-0-5-3-0-13--13----|


           PM----|   PM
|---------------------------------------------------------------------------------------|
|---------------------------------------------------------------------------------------|
|---------------------------------------------------------------------------------------|
|-15-14-15---------------------------14S12-12-12-12-12-12-12-12S14-14-14-14-14-14-14----|
|-12-12-12---------5---5-3---10--10--10S=8--8--8--8--8--8--8--8S10-10-10-10-10-10-10----|
|-12-12-12-0-0-0-0-5-0-5-3-0-10--10--10S=8--8--8--8--8--8--8--8S10-10-10-10-10-10-10----|


Gtr 3
play twice
           PM--|
|------------------------------------------------------------|
|------------------------------------------------------------|
|------------------------------------------------------------|
|-------5---------------------------5------------------------|
|-5-7-8----8-7-8--7-5-7--5-3--5-7-8----8-7-8--7h8p7p5-3-6----|
|------------------------------------------------------------|


|----------------------------------------------------|
|----------------------------------------------------|
|-----------------------------7--9--9S10--9--7--5----|
|-------7--------------------------------------------|
|-5-7-8----8-7-8--7-5-7--5-3--5--7--7S=8--7--5--3----|
|----------------------------------------------------|


Gtr 4
play twice
|---------------------------------------------------------------|
|---5-6-6h8--6-5-6--5---5---------5-6-6h8--6-5-6--5h6p5---------|
|-7-------------------7----7-5--7-----------------------7-5-8---|
|---------------------------------------------------------------|
|---------------------------------------------------------------|
|---------------------------------------------------------------|


|---------------------------------|
|---5-6-6h8--6-5-6--5---5---------|
|-7-------------------7----7-5----|
|---------------------------------|
|---------------------------------|
|---------------------------------|


            PM---|            PM---|            PM---|            PM---|            PM---|
|-------------------------------------------------------10h13p10----------10h12p10----------10h13p10---|
|-10h11p10----------10h13p10----------10h11p10---------------------------------------------------------|
|------------------------------------------------------------------------------------------------------|
|----------12-10-12----------12-10-12----------12-10-12----------12-10-12----------12-10-12------------|
|------------------------------------------------------------------------------------------------------|
|------------------------------------------------------------------------------------------------------|


Gtr 5
play twice
|--------------------------------------------------------------------------------|
|----8-10-10h11--10-8-10--8----8-----------8-10-10h11--10-8-10--8h10p8-----------|
|-10------------------------10----10-9--10-----------------------------10-9-12---|
|--------------------------------------------------------------------------------|
|--------------------------------------------------------------------------------|
|--------------------------------------------------------------------------------|


|-----------------------------------------|
|----8-10-10h11--10-8-10--8----8----------|
|-10------------------------10----10-9----|
|-----------------------------------------|
|-----------------------------------------|
|-----------------------------------------|


            PM---|            PM---|            PM---|            PM---|            PM---|
|-------------------------------------------------------10h13p10----------10h12p10----------10h13p10---|
|-10h11p10----------10h13p10----------10h11p10---------------------------------------------------------|
|------------------------------------------------------------------------------------------------------|
|----------12-10-12----------12-10-12----------12-10-12----------12-10-12----------12-10-12------------|
|------------------------------------------------------------------------------------------------------|
|------------------------------------------------------------------------------------------------------|


Gtr 3
|-10-------|
|-13b15----|
|----------|
|----------|
|----------|
|----------|


Gtr 4
|-13-------|
|-16b18----|
|----------|
|----------|
|----------|
|----------|


Gtr 5
|-17-------|
|-20b22----|
|----------|
|----------|
|----------|
|----------|


Repeat Verse


Chorus
Both Gtrs
play 3 times
  PM|   PM  PM    PM|   PM  PM
|------------------------------------|
|------------------------------------|
|------------------------------------|
|------------------------------------|
|-----3---5---3-0-----3---5---6-3----|
|-0-0-3-0-5-0-3-0-0-0-3-0-5-0-6-3----|


4th time
  PM|   PM  PM    PM    PM
|------------------------------------|
|------------------------------------|
|------------------------------------|
|------------------------------------|
|-----3---5---3-0---3-3---3-2-1-0----|
|-0-0-3-0-5-0-3-0-0-3-3-0-3-2-1-0----|


play above twice


Gtr 3
play twice
|-10-10-10-10-10-10-10-10-10-10-10-10-10-10-10-10-10-10-10-10-10-10-10-10-10-10-10-10-10-10-10-10----|
|-13-13-13-13-13-13-13-13-13-13-13-13-13-13-13-13-12-12-12-12-12-12-12-12-12-12-12-12-12-12-12-12----|
|----------------------------------------------------------------------------------------------------|
|----------------------------------------------------------------------------------------------------|
|----------------------------------------------------------------------------------------------------|
|----------------------------------------------------------------------------------------------------|


|-10-10-10-10-10-10-10-10-10-10-10-10-10-10-10-10-10-10-10-10-10-10-10-10-10-10-10-10-10-10-10-10----|
|-11-11-11-11-11-11-11-11-11-11-11-11-11-11-11-11-10-10-10-10-10-10-10-10-10-10-10-10-10-10-10-10----|
|----------------------------------------------------------------------------------------------------|
|----------------------------------------------------------------------------------------------------|
|----------------------------------------------------------------------------------------------------|
|----------------------------------------------------------------------------------------------------|


Both Gtrs
play 4 times
  PM|   PM  PM    PM|   PM  PM
|------------------------------------|
|------------------------------------|
|------------------------------------|
|------------------------------------|
|-----3---5---3-0-----3---5---6-3----|
|-0-0-3-0-5-0-3-0-0-0-3-0-5-0-6-3----|


Gtr 3
|-10-10-10-10-10-10-10-10-10-10-10-10-10-10-10-10-10-10-10-10-10-10-10-10-10-10-10-10-10-10-10-10----|
|-13-13-13-13-13-13-13-13-13-13-13-13-13-13-13-13-12-12-12-12-12-12-12-12-12-12-12-12-12-12-12-12----|
|----------------------------------------------------------------------------------------------------|
|----------------------------------------------------------------------------------------------------|
|----------------------------------------------------------------------------------------------------|
|----------------------------------------------------------------------------------------------------|


|-10-10-10-10-10-10-10-10-10-10-10-10-10-10-10-10-10-10-10-10-10-10-10-10-10-10-10-10-10-10-10-10----|
|-11-11-11-11-11-11-11-11-11-11-11-11-11-11-11-11-10-10-10-10-10-10-10-10-10-10-10-10-10-10-10-10----|
|----------------------------------------------------------------------------------------------------|
|----------------------------------------------------------------------------------------------------|
|----------------------------------------------------------------------------------------------------|
|----------------------------------------------------------------------------------------------------|


Tablature Legend
----------------
 h   - hammer-on
 p   - pull-off
 b   - bend
 pb  - pre-bend
 r   - bend release (if no number after the r, then release immediately)
 /\  - slide into or out of (from/to "nowhere")
 s   - legato slide
 S   - shift slide
  - natural harmonic
[n]  - artificial harmonic
n(n) - tapped harmonic
 ~   - vibrato
 tr  - trill
 T   - tap
 TP  - trem. picking
 PM  - palm muting
\n/  - tremolo bar dip; n = amount to dip
 \n  - tremolo bar down
 n/  - tremolo bar up
/n\  - tremolo bar inverted dip
 =   - hold bend; also acts as connecting device for hammers/pulls
 <>  - volume swell (louder/softer)
 x   - on rhythm slash represents muted slash
 o   - on rhythm slash represents single note slash

Добавлено: 08.06.2012
Другие материалы по этой песне:

Страница создана 31.03.2012
http://primanota.ru/annihilator/ritual-chords.htm
Привет, Гость.
Предлагаем пройти революционный курс по гитаре.
Подарок от PrimaNota.Ru, забирай!