PrimaNota.ru - самый крупный в мире бесплатный архив песенных текстов, аккордов, табулатур и нот


Annihilator - Smothered - текст песни, таба, видео

Регистрация Запомнить меня
Войти через:  Facebook Google Twitter Vk Yandex Mail.ru

Annihilator - Smothered - текст песни, таба, видео

Печатать
Просмотров: 126
palm mute everything that only involves the E string (bottom string)

tuning is drop B (drop D down 1 and a half steps)

Intro 1 (both guitars)
|----------------------|
|----------------------|
|----------------------|
|----------------------|
|-10-10-10-10-10--10-0-|
|-10-10-10-10-10--10-0-|

Intro 2 (guitar 1)
|---------------------------------------------------------------------------|
|---------------------------------------------------------------------------|
|---------------------------------------------------------------------------|
|---------------------------------------------------------------------------|
|-----3-0-5-0-3-0------3-0-6-0-3-0------3-0-5-0-3-0------8-8-8-8-10-10-10-0-|
|-0-0-3-0-5-0-3-0--0-0-3-0-6-0-3-0--0-0-3-0-5-0-3-0--0-0-8-8-8-8-10-10-10-0-|

Intro 2 (guitar 2)
|------------------------------------------------------------------------|
|------------------------------------------------------------------------|
|------------------------------------------------------------------------|
|------------------------------------------------------------5---3h5-5---|
|-----3-0-5-0-3-0------3-0-6-0-3-0------3-0-5-0-3-0------5-5---5-------5-|
|-0-0-3-0-5-0-3-0--0-0-3-0-6-0-3-0--0-0-3-0-5-0-3-0--0-0-----------------|

play intro 2 twice

Verse (both guitars)
|-------------------------------------------------------------------------|
|-------------------------------------------------------------------------|
|-------------------------------------------------------------------------|
|-------3---7---3-------3---7---3-------3---7---3-------------------------|
|-------5---8---5-------5---8---5-------5---8---5-------2\6-6-0-2\6-6-5p0-|
|-0-0-0---0---0---0-0-0---0---0---0-0-0---0---0---0-0-0-2\6-6-0-2\6-6-5p0-|

play verse 4 times

Chorus (both guitars)
|-------------------------------------------------|
|-------------------------------------------------|
|-------------------------------------------------|
|-------------------------------------------------|
|-2--0--3--6--2--0--------------------------------|
|-2--0--3--6--2--0--3-3-3-3-3-3-3-3-1-1-1-1-1-1-1-|

|--------------------------------------|
|--------------------------------------|
|--------------------------------------|
|--------------------------------------|
|-2--0--3--6--2--0------------------1--|
|-2--0--3--6--2--0--3-3-3-3-3-3-3-3-1--|

First bridge (guitar 1) (guitar 2 plays intro 2)
    *slow bend
|------------------------------------------------------------|
|---------------------------------------------------15b17r15-|
|-10b12r10--10-10h12p10----12-10b12r10--10-10h12p10----------|
|-10b12r10--10-10h12p10-10----10b12r10--10-10h12p10----------|
|------------------------------------------------------------|
|------------------------------------------------------------|

|-15-13-12----------------|
|----------15-13-12-------|
|-------------------14-12-|
|-------------------------|
|-------------------------|
|-------------------------|

repeat verse x4 and chorus

sorry i dont know the rest of the song but i will try to figure it out
  
Добавлено: 04.06.2012
Другие материалы по этой песне:

Страница создана 01.03.2012
http://primanota.ru/annihilator/smothered-chords.htm
Привет, Гость.
Предлагаем пройти революционный курс по гитаре.
Подарок от PrimaNota.Ru, забирай!