PrimaNota.ru - самый крупный в мире бесплатный архив песенных текстов, аккордов, табулатур и нот


Annihilator - Reduced To Ash - текст песни, таба, видео

Регистрация Запомнить меня
Войти через:  Facebook Google Twitter Vk Yandex Mail.ru

Annihilator - Reduced To Ash - текст песни, таба, видео

Печатать
Просмотров: 164
Авторы музыки: Jeff Waters
Авторы текста: Jeff Waters
Annihilator - Reduced To Ash

tabbed by ol753
www.annihilatormetal.com
ol753_357lo@yahoo.co.uk

Tuning - E A D G B E


Gtr 1
play 3 times
|------------------------------|
|------------------------------|
|------------------------------|
|------------------------------|
|-7-7-7-8---10--7-7-7-8---5----|
|-5-5-5-6----8--5-5-5-6---3----|


4th time, Gtr 2 joins
|------------------------|
|------------------------|
|------------------------|
|------------------------|
|-7-7-7-8---10--7---8----|
|-5-5-5-6----8--5---6----|


Both Gtrs
play 3 times
|------------------------------|
|------------------------------|
|------------------------------|
|------------------------------|
|-7-7-7-8---10--7-7-7-8---5----|
|-5-5-5-6----8--5-5-5-6---3----|


4th time
|------------------------|
|------------------------|
|------------------------|
|------------------------|
|-7-7-7-8---10--7--------|
|-5-5-5-6----8--5-*-\\---|


Both Gtrs
play 3 times
|------------------------------|
|------------------------------|
|------------------------------|
|------------------------------|
|-7-7-7-8---10--7-7-7-8---5----|
|-5-5-5-6----8--5-5-5-6---3----|


4th time
|--------------------------|
|--------------------------|
|--------------------------|
|--------------------------|
|-7-7-7-8---10--7--6--5----|
|-5-5-5-6----8--5--4--3----|


Both Gtrs
|-------------------------------------|
|-------------------------------------|
|----------------------------6-5-4----|
|----4--5----7-5-4----4--5---4-3-2----|
|-4--2--3----5-3-2-4--2--3------------|
|-2----------------2------------------|


|-------------------------------------|
|-------------------------------------|
|-------------------------------------|
|----4--5----7-5-4----4--5-----8-9----|
|-4--2--3----5-3-2-4--2--3---6-6-7----|
|-2----------------2---------4--------|


  PM--|              PM--|
|------------------------------------------|
|------------------------------------------|
|---------------------------------6-5-4----|
|-------4--5---7-5-4-------4--5---4-3-2----|
|-------2--3---5-3-2-------2--3------------|
|-2-2-2--------------2-2-2-----------------|


  PM--|              PM--|
|------------------------------------------|
|------------------------------------------|
|------------------------------------------|
|-------4--5---7-5-4-------4--5-----8-9----|
|-------2--3---5-3-2-------2--3---6-6-7----|
|-2-2-2--------------2-2-2--------4--------|


Verse
Both Gtrs
  PM--|       PM--|       PM--|       PM-------------------|
|----------------------------------------------------------|
|----------------------------------------------------------|
|-------7--9--------6--7--------7--9-----------------------|
|-------7--7--------7--7--------7--7-----------------------|
|----------------------------------------------------------|
|-7-7-7-------7-7-7-------7-7-7-------7-7-7-7-7-7-7-7------|


  PM--|       PM--|       PM--|       PM-------------------|
|----------------------------------------------------------|
|----------------------------------------------------------|
|-------7--9--------6--7--------7--9-----------------------|
|-------7--7--------7--7--------7--7-----------------------|
|--------------------------------------------7-9-10-9------|
|-7-7-7-------7-7-7-------7-7-7-------7-9-10---------------|


Both Gtrs
|-------------------------------------|
|-------------------------------------|
|----------------------------6-5-4----|
|----4--5----7-5-4----4--5---4-3-2----|
|-4--2--3----5-3-2-4--2--3------------|
|-2----------------2------------------|


|-------------------------------------|
|-------------------------------------|
|-------------------------------------|
|----4--5----7-5-4----4--5-----8-9----|
|-4--2--3----5-3-2-4--2--3---6-6-7----|
|-2----------------2---------4--------|


  PM--|       PM--|       PM--|       PM-------------------|
|----------------------------------------------------------|
|----------------------------------------------------------|
|-------7--9--------6--7--------7--9-----------------------|
|-------7--7--------7--7--------7--7-----------------------|
|----------------------------------------------------------|
|-7-7-7-------7-7-7-------7-7-7-------7-7-7-7-7-7-7-7------|


  PM--|       PM--|       PM--|       PM-------------------|
|----------------------------------------------------------|
|----------------------------------------------------------|
|-------7--9--------6--7--------7--9-----------------------|
|-------7--7--------7--7--------7--7-----------------------|
|--------------------------------------------7-9-10-9------|
|-7-7-7-------7-7-7-------7-7-7-------7-9-10---------------|


Both Gtrs
|-------------------------------------|
|-------------------------------------|
|----------------------------6-5-4----|
|----4--5----7-5-4----4--5---4-3-2----|
|-4--2--3----5-3-2-4--2--3------------|
|-2----------------2------------------|


                             PM--|
|-------------------------------------|
|-------------------------------------|
|-------------------------------------|
|----4--5----7-5-4----4--5------------|
|-4--2--3----5-3-2-4--2--3---4-3-2----|
|-2----------------2---------2-1-0----|


|-------------------------------------|
|-------------------------------------|
|----------------------------6-5-4----|
|----4--5----7-5-4----4--5---4-3-2----|
|-4--2--3----5-3-2-4--2--3------------|
|-2----------------2------------------|


  PM--|              PM--|
|------------------------------------------|
|------------------------------------------|
|------------------------------------------|
|-------4--5---7-5-4-------4--5-----8-9----|
|-------2--3---5-3-2-------2--3---6-6-7----|
|-2-2-2--------------2-2-2--------4--------|


Both Gtrs
  PM-----------------------------------------------------------------------------------|
|--------------------------------------------------------------------------------------|
|--------------------------------------------------------------------------------------|
|--------------------------------------------------------------------------------------|
|--------------------------------------------------------------------------------------|
|--------------------------------------------------------------------------------------|
|-9-9-9-10-10-10-7-7-9-9-9-10-10-10-7-7-9-9-9-10-10-10-7-7-9-\\-\\-\\-\\-\\-\\-\\------|


  PM-------------------------------------------------------------------------|
|----------------------------------------------------------------------------|
|----------------------------------------------------------------------------|
|----------------------------------------------------------------------------|
|----------------------------------------------------------------------------|
|----------------------------------------------------------11--10--9--8------|
|-9-9-9-10-10-10-7-7-9-9-9-10-10-10-7-7-9-9-9-10-10-10-7-7--9---8--7--6------|


Both Gtrs
play twice
  PM--|       PM--|       PM--|       PM--------------|
|-----------------------------------------------------|
|-----------------------------------------------------|
|-----------------------------------------------------|
|-------2-----------2-----------5-----------5---------|
|-------0--2--------0--2--------3--5--------3--5------|
|-0-2-2----0--0-2-2----0--5-5-5----3--5-5-5----3------|


  PM--|       PM--|       PM---------------------|
|------------------------------------------------|
|------------------------------------------------|
|------------------------------------------------|
|-------2-----------2-----------5----------------|
|-------0--2--------0--2--------3----------------|
|-0-2-2----0--0-2-2----0--5-5-5----3--5--\\------|


Both Gtrs
play 4 times
  PM--------------------|         PM---------------------------|
|--------------------------------------------------------------|
|--------------------------------------------------------------|
|--------------------------------------------------------------|
|-------------------------2h4-------------------------2h4------|
|-------------------------0h2--2----------------------0h2------|
|-2-2-2-2-2-2-2-2-2-2-2-2------0--0-0-0-0-0-0-0-0-0-0----------|


     PM----------------------------------------|
|----------------------------------------------|
|----------------------------------------------|
|----------------------------------------------|
|------------------------2h4---9--7--7--4------|
|-4----------------------0h2---7--5--4--2------|
|-2--2-2-2-2-2-2-2-2-2-2-----------------------|


Both Gtrs
  PM--------------------------|    PM-----------------------------|
|-----------------------------------------------------------------|
|-----------------------------------------------------------------|
|-----------------------------------------------------------------|
|-----------------------------------------------------------------|
|-------------------------------7---------------------------------|
|-2-2-2-2-2-2-2-2-2-2-2-2-2-3-4-5--5-5-5-5-5-5-5-5-5-5-5-4-3------|


     PM----------------------|    PM--------------------------|
|-------------------------------------------------------------|
|-------------------------------------------------------------|
|-------------------------------------------------------------|
|-------------------------------------------------------------|
|-4----------------------------7-----------------7--6--5------|
|-2--2-2-2-2-2-2-2-2-2-2-2-3-4-5--5-5-5-5-5-5-5--5--4--3------|


  PM--------------------------|    PM-----------------------------|
|-----------------------------------------------------------------|
|-----------------------------------------------------------------|
|-----------------------------------------------------------------|
|-----------------------------------------------------------------|
|-------------------------------7---------------------------------|
|-2-2-2-2-2-2-2-2-2-2-2-2-2-3-4-5--5-5-5-5-5-5-5-5-5-5-5-4-3------|


     PM----------------------|    PM--------------------------|
|-------------------------------------------------------------|
|-------------------------------------------------------------|
|-------------------------------------------------------------|
|-------------------------------------------------------------|
|-4----------------------------7--------------7--6--5--4------|
|-2--2-2-2-2-2-2-2-2-2-2-2-3-4-5--5-5-5-5-5-5-5--4--3--2------|


Gtr 3
|-----------------------|
|-17b19r====17p14-17----|
|-----------------------|
|-----------------------|
|-----------------------|
|-----------------------|


|-14-14-14-19p14----14h17p14----14h19p14----14h17p14----14h19p14----14h17p14----14h19p14----14h20p14----14h19p14----14--------|
|----------------17----------17----------17----------17----------17----------17----------17----------17----------17----17b19--|
|-----------------------------------------------------------------------------------------------------------------------------|
|-----------------------------------------------------------------------------------------------------------------------------|
|-----------------------------------------------------------------------------------------------------------------------------|
|-----------------------------------------------------------------------------------------------------------------------------|


|----16p14h16p14----14-------14-------------------------|
|-17-------------17----14-------------------------------|
|-------------------------16----17p16p14----16----14----|
|----------------------------------------16----16-------|
|-------------------------------------------------------|
|-------------------------------------------------------|


                                                              PM--|
|----14----14S12----12S10----10S9----9S7---7S5---5S4--4------------------|
|-15----15-------14-------12------10-----9-----7--------5----------------|
|---------------------------------------------------------4S1------------|
|-------------------------------------------------------------------4----|
|-------------------------------------------------------------4-2-4------|
|------------------------------------------------------------------------|


|--------------------------------------9--9--9\\---------------|
|-----------------------------7--9h10-10-10-10\\----7---9------|
|---------------------6---4-7----9h11-11-11-11\\----7---9------|
|-------------6---4-7---7--------------------------------------|
|-----4---4-7---7----------------------------------------------|
|-2-5---5------------------------------------------------------|


|--------7----7-9----7--------7----7-9----7--------7----7-9----7---------------------|
|-10b12----10-----10---10b12----10-----10---10b12----10-----10---10-9-7-10-9b10r9----|
|------------------------------------------------------------------------------------|
|------------------------------------------------------------------------------------|
|------------------------------------------------------------------------------------|
|------------------------------------------------------------------------------------|


|------12------12------------14-------14-------------16-------16----16b17----|
|-9-10----9-10----9-10-10-12----10-12----10-12-12-14----12-14----12----------|
|----------------------------------------------------------------------------|
|----------------------------------------------------------------------------|
|----------------------------------------------------------------------------|
|----------------------------------------------------------------------------|


|-------------------------------------------------------------------------------------------14h16p14----------17h20p17-17S14----14h17p14----------|
|-------------------------------------------------------------------------14h17p14-------------------17-14-17----------------16----------16--16---|
|-------------------------------------------------------14h17p14-------------------16-14-16-------------------------------------------------------|
|-------------------12h16p12----------14h18p14-------------------16-14-16-------------------------------------------------------------------------|
|-12h16p12-------------------14-12-14----------16-14-16-------------------------------------------------------------------------------------------|
|----------14-12-14-------------------------------------------------------------------------------------------------------------------------------|


|------------------------------------------------------------------------------------------------------------|
|-14h16h17p16p14----16p14----14------------------------------------------------------------------------------|
|----------------17-------17----17-16-14h16h18p16p14----16p14----14------------------------------------------|
|----------------------------------------------------18-------18----18-16-14h16h18p16p14----16p14--------16--|
|----------------------------------------------------------------------------------------17-------16-14------|
|------------------------------------------------------------------------------------------------------------|


|--------2-----------------------------------5-------------------------|
|------2---2h5---2-------------------------5---5h8---5-----------------|
|-4b6----------4---5p4p2---4---2h3----7b9----------7---8p7p5---7---5h6-|
|------------------------4---4-------------------------------7---7-----|
|----------------------------------------------------------------------|
|----------------------------------------------------------------------|


|-----------14-----------------------------------------------17--------17--------17----------|
|--------14----14h17----14----------------------------20b22-----20b22-----20b22-----20b22----|
|-16b18--------------16----17p16p14----16----14h15-------------------------------------------|
|-----------------------------------16----16-------------------------------------------------|
|--------------------------------------------------------------------------------------------|
|--------------------------------------------------------------------------------------------|


|------------------------------------------------------------|
|-2-------------2-------------5-------------5----------------|
|-2-------------2-------------5-------------5----------------|
|-----4-3-2---------4-3-2---------7-6-5---------7-6-5--------|
|-----------4-3-----------4-3-----------7-6-----------7-6----|
|------------------------------------------------------------|


|------------------------------------------------------------------------------------|
|-2-------------2---------------------------------------------------20b22------20b22-|
|-2-------------2---------------17-17-17-17-17-17-17-17-17-17-17-17------------------|
|-2---4-3-2---------4-3-2-------17-17-17-17-17-17-17-17-17-17-17-17------------------|
|-----------4-3-----------4-3--------------------------------------------------------|
|------------------------------------------------------------------------------------|


Gtr 1
play twice
|------------------------------|
|------------------------------|
|------------------------------|
|------------------------------|
|-7-7-7-8---10--7-7-7-8---5----|
|-5-5-5-6----8--5-5-5-6---3----|


Gtr 1
|------------------------------|
|------------------------------|
|------------------------------|
|------------------------------|
|-7-7-7-8---10--7-7-7-8---5----|
|-5-5-5-6----8--5-5-5-6---3----|


  PM------------------------|
|---------------------------|
|---------------------------|
|---------------------------|
|---------------------------|
|-----------------7--8------|
|-5-5-5-6-6-6-8-8-5--6------|

Gtr 2
                  PM--------------------------|
|---------------------------------------------|
|---------------------------------------------|
|---------------------------------------------|
|---------------------------------------------|
|-7-7-7-8---10\\--------------------7--8------|
|-5-5-5-6----8\\----5-5-5-6-6-6-8-8-5--6------|


Verse
Both Gtrs
  PM--|       PM--|       PM--|       PM-------------------|
|----------------------------------------------------------|
|----------------------------------------------------------|
|-------7--9--------6--7--------7--9-----------------------|
|-------7--7--------7--7--------7--7-----------------------|
|----------------------------------------------------------|
|-7-7-7-------7-7-7-------7-7-7-------7-7-7-7-7-7-7-7------|


  PM--|       PM--|       PM--|       PM-------------------|
|----------------------------------------------------------|
|----------------------------------------------------------|
|-------7--9--------6--7--------7--9-----------------------|
|-------7--7--------7--7--------7--7-----------------------|
|--------------------------------------------7-9-10-9------|
|-7-7-7-------7-7-7-------7-7-7-------7-9-10---------------|


Both Gtrs
|-------------------------------------|
|-------------------------------------|
|----------------------------6-5-4----|
|----4--5----7-5-4----4--5---4-3-2----|
|-4--2--3----5-3-2-4--2--3------------|
|-2----------------2------------------|


|-------------------------------------|
|-------------------------------------|
|-------------------------------------|
|----4--5----7-5-4----4--5-----8-9----|
|-4--2--3----5-3-2-4--2--3---6-6-7----|
|-2----------------2---------4--------|


Both Gtrs
play 3 times
  PM-----------------------------------------------------------------------------------|
|--------------------------------------------------------------------------------------|
|--------------------------------------------------------------------------------------|
|--------------------------------------------------------------------------------------|
|--------------------------------------------------------------------------------------|
|--------------------------------------------------------------------------------------|
|-9-9-9-10-10-10-7-7-9-9-9-10-10-10-7-7-9-9-9-10-10-10-7-7-9-\\-\\-\\-\\-\\-\\-\\------|


  PM-------------------------------------------------------------------------|
|----------------------------------------------------------------------------|
|----------------------------------------------------------------------------|
|----------------------------------------------------------------------------|
|----------------------------------------------------------------------------|
|----------------------------------------------------------11--10--9--8------|
|-9-9-9-10-10-10-7-7-9-9-9-10-10-10-7-7-9-9-9-10-10-10-7-7--9---8--7--6------|


Both Gtrs
                       PM-------------------|
|-------------------------------------------|
|-------------------------------------------|
|-------------------------------------------|
|-------------------------------------------| * (heavy metal song ending etc.)
|-4--------4--4-----------------------------|
|-2--------2--2--------0-0-0-0-0-0-0-0-*----|


Gtr 3
|--------14-------18p14----14----------------------------------------------------|
|-17b19-----17p14-------17----17p14----14----------------------------------------|
|-----------------------------------16----16-15----15----------------------------|
|-----------------------------------------------16----16-14-13-16-14-13----------|
|-----------------------------------------------------------------------16-16----|
|--------------------------------------------------------------------------14----|


Both Gtrs
|-----------|
|-----------|
|-----------|
|-----------|
|-4----4----|
|-2----2----|


Tablature Legend
----------------
 h   - hammer-on
 p   - pull-off
 b   - bend
 pb  - pre-bend
 r   - bend release (if no number after the r, then release immediately)
 /\\  - slide into or out of (from/to \"nowhere\")
 s   - legato slide
 S   - shift slide
  - natural harmonic
[n]  - artificial harmonic
n(n) - tapped harmonic
 ~   - vibrato
 tr  - trill
 T   - tap
 TP  - trem. picking
 PM  - palm muting
\\n/  - tremolo bar dip; n = amount to dip
 \\n  - tremolo bar down
 n/  - tremolo bar up
/n\\  - tremolo bar inverted dip
 =   - hold bend; also acts as connecting device for hammers/pulls
 <>  - volume swell (louder/softer)
 x   - on rhythm slash represents muted slash
 o   - on rhythm slash represents single note slash

Misc Legend
-----------
 |  - bar
||  - double bar
||o - repeat start
o|| - repeat end
*|  - double bar (ending)
 :  - bar (freetime)
 $  - Segno
 &  - Coda
Tempo markers -  = BPM(8/16=s8/s16), where s8 = swing 8ths, s16 = swing 16ths
Добавлено: 23.03.2012
Другие материалы по этой песне:

Страница создана 07.03.2012
http://primanota.ru/annihilator/reduced-to-ash-chords.htm
Привет, Гость.
Предлагаем пройти революционный курс по гитаре.
Подарок от PrimaNota.Ru, забирай!