PrimaNota.ru - самый крупный в мире бесплатный архив песенных текстов, аккордов, табулатур и нот


Annihilator - Pastor Of Disaster - текст песни, таба, видео

Регистрация Запомнить меня
Войти через:  Facebook Google Twitter Vk Yandex Mail.ru

Annihilator - Pastor Of Disaster - текст песни, таба, видео

Печатать
Просмотров: 181
Annihilator - Pastor Of Disaster

tabbed by ol753
www.annihilatormetal.com
ol753_357lo@yahoo.co.uk

Tuning - D A D G B E


Gtr 1
play twice, Gtr 2 joins 2nd time
          PM             PM             PM             PM
|-----------------------------------------------------------------|
|-----------------------------------------------------------------|
|-----------------------------------------------------------------|
|-----------------------------------------------------------------|
|-0---2-3---2-3--0---2-3---6-1--0---2-3---2-3--0---2-3---6-1-1----|
|-0---2-3-0-2-3--0---2-3-0-6-1--0---2-3-0-2-3--0---2-3-0-6-1-1----|


Both Gtrs
play twice
          PM             PM             PM             PM
|-----------------------------------------------------------------|
|-----------------------------------------------------------------|
|-----------------------------------------------------------------|
|-----------------------------------------------------------------|
|-0---2-3---2-3--0---2-3---6-1--0---2-3---2-3--0---2-3---6-1-1----|
|-0---2-3-0-2-3--0---2-3-0-6-1--0---2-3-0-2-3--0---2-3-0-6-1-1----|


Both Gtrs
          PM    PM  PM    PM    PM  PM    PM    PM  PM    PM
|--------------------------------------------------------------------|
|--------------------------------------------------------------------|
|--------------------------------------------------------------------|
|--------------------------------------------------------------------|
|-0---2-3---2-3---0---2-3---6-1---0---2-3---2-3---0---2-3---6-1-1----|
|-0---2-3-0-2-3-0-0-0-2-3-0-6-1-1-0-0-2-3-0-2-3-0-0-0-2-3-0-6-1-1----|


          PM    PM  PM    PM    PM  PM    PM    PM  PM    PM
|--------------------------------------------------------------------|
|--------------------------------------------------------------------|
|--------------------------------------------------------------------|
|--------------------------------------------------------------------|
|-0---2-3---2-3---0---2-3---6-1---0---2-3---2-3---0---2-3---6-1-1-0--|
|-0---2-3-0-2-3-0-0-0-2-3-0-6-1-1-0-0-2-3-0-2-3-0-0-0-2-3-0-6-1-1-0--|


Gtr 3
       PM  PM      PM   PM                  PM  PM      PM   PM
|--------8------------------------------------8-----------------------------|
|---10-------10------10---10b11r=10------10-------10------------------------|
|-7----7---7----7--7----7--------------7----7---7----7--7-10-7-10b12r=10----|
|---------------------------------------------------------------------------|
|---------------------------------------------------------------------------|
|---------------------------------------------------------------------------|


       PM  PM      PM   PM                  PM  PM      PM   PM
|--------8------------------------------------8-------------------------------|
|---10-------10------10---10b11r=10------10-------10--------------------------|
|-7----7---7----7--7----7--------------7----7---7----7--7-10-7-[10]b12r=10----|
|-----------------------------------------------------------------------------|
|-----------------------------------------------------------------------------|
|-----------------------------------------------------------------------------|


Both Gtrs
  PM
|------------|
|------------|
|------------|
|------------|
|---6-1-1----|
|-0-6-1-1----|


Both Gtrs
    PM    PM    PM  PM    PM    PM  PM    PM    PM  PM    PM
|--------------------------------------------------------------------|
|--------------------------------------------------------------------|
|--------------------------------------------------------------------|
|--------------------------------------------------------------------|
|-0---2-3---2-3---0---2-3---6-1---0---2-3---2-3---0---2-3---6-1-1----|
|-0-0-2-3-0-2-3-0-0-0-2-3-0-6-1-1-0-0-2-3-0-2-3-0-0-0-2-3-0-6-1-1----|


          PM    PM  PM    PM    PM  PM    PM    PM  PM    PM
|--------------------------------------------------------------------|
|--------------------------------------------------------------------|
|--------------------------------------------------------------------|
|--------------------------------------------------------------------|
|-0---2-3---2-3---0---2-3---6-1---0---2-3---2-3---0---2-3---6-1-1-0--|
|-0---2-3-0-2-3-0-0-0-2-3-0-6-1-1-0-0-2-3-0-2-3-0-0-0-2-3-0-6-1-1-0--|


Gtr 1
play twice
|----------|
|-13b15\---|
|----------|
|----------|
|----------|
|----------|


Gtr 2
play twice
|----------|
|-16b18\---|
|----------|
|----------|
|----------|
|----------|


Both Gtrs
  PM
|--------------|
|--------------|
|--------------|
|--------------|
|---6-1-1------|
|-0-6-1-1-0----|


Gtr 1
|----------------------------------|
|----------------------------------|
|-----0-----5-----------0-----5----|
|---3-----5-----------3-----5------|
|-5-----6-----------5-----6--------|
|----------------------------------|


|---------------------------------------------------|
|---------------------------------------------------|
|-----0-----5-----------0-----5---------------------|
|---3-----5-----------3-----5-----------------------|
|-5-----6-----------5-----6-------3--5-5-3-3-2-1----|
|---------------------------------3--5-5-3-3-2-1----|


Gtr 2
|-----------------------------------------------------|
|-----------------------------------------------------|
|-----0-----5-----------0-----5-----------------------|
|---3-----5-----------3-----5-------------------------|
|-5-----6-----------5-----6-------3--5-5-3-5-5-3-0----|
|---------------------------------3--5-5-3-5-5-3-0----|


|---------------------------------------------------|
|---------------------------------------------------|
|-----0-----5-----------0-----5---------------------|
|---3-----5-----------3-----5-----------------------|
|-5-----6-----------5-----6-------3--5-5-3-3-2-1----|
|---------------------------------3--5-5-3-3-2-1----|


Both Gtrs
          PM    PM  PM    PM    PM  PM    PM    PM  PM    PM
|--------------------------------------------------------------------|
|--------------------------------------------------------------------|
|--------------------------------------------------------------------|
|--------------------------------------------------------------------|
|-0---2-3---2-3---0---2-3---6-1---0---2-3---2-3---0---2-3---6-1-1----|
|-0---2-3-0-2-3-0-0-0-2-3-0-6-1-1-0-0-2-3-0-2-3-0-0-0-2-3-0-6-1-1----|


          PM    PM  PM    PM    PM  PM    PM    PM  PM    PM
|--------------------------------------------------------------------|
|--------------------------------------------------------------------|
|--------------------------------------------------------------------|
|--------------------------------------------------------------------|
|-0---2-3---2-3---0---2-3---6-1---0---2-3---2-3---0---2-3---6-1-1-0--|
|-0---2-3-0-2-3-0-0-0-2-3-0-6-1-1-0-0-2-3-0-2-3-0-0-0-2-3-0-6-1-1-0--|


Gtr 3
       PM  PM      PM   PM                  PM  PM      PM   PM
|--------8------------------------------------8-----------------------------|
|---10-------10------10---10b11r=10------10-------10------------------------|
|-7----7---7----7--7----7--------------7----7---7----7--7-10-7-10b12r=10----|
|---------------------------------------------------------------------------|
|---------------------------------------------------------------------------|
|---------------------------------------------------------------------------|


       PM  PM      PM   PM                  PM  PM      PM   PM
|--------8------------------------------------8-------------------------------|
|---10-------10------10---10b11r=10------10-------10--------------------------|
|-7----7---7----7--7----7--------------7----7---7----7--7-10-7-[10]b12r=10----|
|-----------------------------------------------------------------------------|
|-----------------------------------------------------------------------------|
|-----------------------------------------------------------------------------|


Both Gtrs
  PM
|--------------|
|--------------|
|--------------|
|--------------|
|---6-1-1------|
|-0-6-1-1-0----|


Gtr 1
|-------------------------------------------------|
|-------------------------------------------------|
|-----0-----5-----------0-----5-------------------|
|---3-----5-----------3-----5---------------------|
|-5-----6-----------5-----6------------5-5-3-0----|
|--------------------------------------5-5-3-0----|


|-----------------------------------------------------|
|-----------------------------------------------------|
|-----0-----5-----------0-----5-----------------------|
|---3-----5-----------3-----5-------------------------|
|-5-----6-----------5-----6-------3--5-5-3-5-5-3-0----|
|---------------------------------3--5-5-3-5-5-3-0----|


|-------------------------------------------------|
|-------------------------------------------------|
|-----0-----5-----------0-----5-------------------|
|---3-----5-----------3-----5---------------------|
|-5-----6-----------5-----6------------5-5-3-0----|
|--------------------------------------5-5-3-0----|


|---------------------------------------------------|
|---------------------------------------------------|
|-----0-----5-----------0-----5---------------------|
|---3-----5-----------3-----5-----------------------|
|-5-----6-----------5-----6-------3--5-5-3-3-2-1-0--|
|---------------------------------3--5-5-3-3-2-1-0--|


Gtr 2
|-----------------------------------------------------|
|-----------------------------------------------------|
|-----0-----5-----------0-----5-----------------------|
|---3-----5-----------3-----5-------------------------|
|-5-----6-----------5-----6-------3--5-5-3-5-5-3-0----|
|---------------------------------3--5-5-3-5-5-3-0----|


|-----------------------------------------------------|
|-----------------------------------------------------|
|-----0-----5-----------0-----5-----------------------|
|---3-----5-----------3-----5-------------------------|
|-5-----6-----------5-----6-------3--5-5-3-5-5-3-0----|
|---------------------------------3--5-5-3-5-5-3-0----|

              PM  PM                               PM  PM
|-------------------------------------------------------------------------|
|-------------------------------------------------------------------------|
|-----0-----5------------------------------0-----5------------------------|
|---3-----5------------------------------3-----5--------------------------|
|-5-----6-------3---5-5-3-5-5-3-0------5-----6-------3---5-5-3-5-5-3-0----|
|-------------0-3-0-5-5-3-5-5-3-0------------------0-3-0-5-5-3-5-5-3-0----|


              PM  PM
|----------------------------------------------------------------------|
|----------------------------------------------------------------------|
|-----0-----5------------------------------0-----5---------------------|
|---3-----5------------------------------3-----5-----------------------|
|-5-----6-------3---5-5-3-5-5-3-0------5-----6-------3--5-5-3-3-2-1-0--|
|-------------0-3-0-5-5-3-5-5-3-0--------------------3--5-5-3-3-2-1-0--|


Both Gtrs
play 4 times
    PM  PM    PM|   PM  PM    PM|   PM  PM    PM--|     PM|     PM
|--------------------------------------------------------------------|
|--------------------------------------------------------------------|
|--------------------------------------------------------------------|
|-7---7---7-------7---7---7-------7---7---7--------------------------|
|-6---6---6-------6---6---6-------6---6---6---------6-3-----6-3------|
|---0---0---0-0-0---0---0---0-0-0---0---0---0-0-0-0-6-3-0-0-6-3-0----|


Both Gtrs
play twice, Gtr 3 Lead (to be added)
  PM----------------------------------------------|     PM|
|--------------------------------------------------------------------|
|--------------------------------------------------------------------|
|--------------------------------------------------------------------|
|--------------------------------------------------------------------|
|---------------------------------------------------6-3-----6-3------|
|-0-0-0-0-0-0-0-0-0-0-0-0-0-0-0-0-0-0-0-0-0-0-0-0-0-6-3-0-0-6-3-0----|


Both Gtrs
    PM--------------------------|   PM    PM------|
|----------------------------------------------------------------|
|----------------------------------------------------------------|
|---------------------------------4---4--------------------------|
|---------------------------------3---3--------------------------|
|-2-------------------------------------------------5-5-4-3-0----|
|-2-2-2-2-2-2-2-2-2-2-2-2-2-2-2-2---2---2-2-2-2-2-2-5-5-4-3-0----|


    PM  PM    PM|   PM  PM    PM|   PM  PM    PM--|     PM|
|-----------------------------------------------------------------|
|-----------------------------------------------------------------|
|-----------------------------------------------------------------|
|-7---7---7-------7---7---7-------7---7---7-----------------------|
|-6---6---6-------6---6---6-------6---6---6---------6-3-----6-3---|
|---0---0---0-0-0---0---0---0-0-0---0---0---0-0-0-0-6-3-0-0-6-3---|


Gtr 1, Gtr 2 joins halfway
          PM             PM             PM             PM
|-----------------------------------------------------------------|
|-----------------------------------------------------------------|
|-----------------------------------------------------------------|
|-----------------------------------------------------------------|
|-0---2-3---2-3--0---2-3---6-1--0---2-3---2-3--0---2-3---6-1-1----|
|-0---2-3-0-2-3--0---2-3-0-6-1--0---2-3-0-2-3--0---2-3-0-6-1-1----|


Both Gtrs
|-------------------------------------------------|
|-------------------------------------------------|
|-----0-----5-----------0-----5-------------------|
|---3-----5-----------3-----5---------------------|
|-5-----6-----------5-----6------------5-5-3-0----|
|--------------------------------------5-5-3-0----|


|-----------------------------------------------------|
|-----------------------------------------------------|
|-----0-----5-----------0-----5-----------------------|
|---3-----5-----------3-----5-------------------------|
|-5-----6-----------5-----6-------3--5-5-3-5-5-3-0----|
|---------------------------------3--5-5-3-5-5-3-0----|


Gtr 1
|-------------------------------------------------|
|-------------------------------------------------|
|-----0-----5-----------0-----5-------------------|
|---3-----5-----------3-----5---------------------|
|-5-----6-----------5-----6------------5-5-3-0----|
|--------------------------------------5-5-3-0----|


|-----------------------------------------------------|
|-----------------------------------------------------|
|-----0-----5-----------0-----5-----------------------|
|---3-----5-----------3-----5-------------------------|
|-5-----6-----------5-----6-------3--5-5-3-5-5-3-0----|
|---------------------------------3--5-5-3-5-5-3-0----|


|----------------------------------|
|----------------------------------|
|-----0-----5-----------0-----5----|
|---3-----5-----------3-----5------|
|-5-----6-----------5-----6--------|
|----------------------------------|


|--------------------------------------------------|
|--------------------------------------------------|
|-----0-----5-----------0-----5--------------------|
|---3-----5-----------3-----5----------------------|
|-5-----6-----------5-----6-------3--5-5-3-3-2-1---|
|---------------------------------3--5-5-3-3-2-1---|


Gtr 2
play 3 times
              PM  PM                               PM  PM
|-------------------------------------------------------------------------|
|-------------------------------------------------------------------------|
|-----0-----5------------------------------0-----5------------------------|
|---3-----5------------------------------3-----5--------------------------|
|-5-----6-------3---5-5-3-5-5-3-0------5-----6-------3---5-5-3-5-5-3-0----|
|-------------0-3-0-5-5-3-5-5-3-0------------------0-3-0-5-5-3-5-5-3-0----|


4th time
              PM  PM
|----------------------------------------------------------------------|
|----------------------------------------------------------------------|
|-----0-----5------------------------------0-----5---------------------|
|---3-----5------------------------------3-----5-----------------------|
|-5-----6-------3---5-5-3-5-5-3-0------5-----6-------3--5-5-3-3-2-1-0--|
|-------------0-3-0-5-5-3-5-5-3-0--------------------3--5-5-3-3-2-1-0--|


Both Gtrs
play twice
          PM    PM  PM    PM    PM  PM    PM    PM  PM    PM
|--------------------------------------------------------------------|
|--------------------------------------------------------------------|
|--------------------------------------------------------------------|
|--------------------------------------------------------------------|
|-0---2-3---2-3---0---2-3---6-1---0---2-3---2-3---0---2-3---6-1-1----|
|-0---2-3-0-2-3-0-0-0-2-3-0-6-1-1-0-0-2-3-0-2-3-0-0-0-2-3-0-6-1-1----|


          PM    PM  PM    PM    PM  PM    PM    PM  PM    PM
|--------------------------------------------------------------------|
|--------------------------------------------------------------------|
|--------------------------------------------------------------------|
|--------------------------------------------------------------------|
|-0---2-3---2-3---0---2-3---6-1---0---2-3---2-3---0---2-3---6-1-1-0--|
|-0---2-3-0-2-3-0-0-0-2-3-0-6-1-1-0-0-2-3-0-2-3-0-0-0-2-3-0-6-1-1-0--|


Gtr 3
play twice
       PM  PM      PM   PM                  PM  PM      PM   PM
|--------8------------------------------------8-----------------------------|
|---10-------10------10---10b11r=10------10-------10------------------------|
|-7----7---7----7--7----7--------------7----7---7----7--7-10-7-10b12r=10----|
|---------------------------------------------------------------------------|
|---------------------------------------------------------------------------|
|---------------------------------------------------------------------------|


       PM  PM      PM   PM                  PM  PM      PM   PM
|--------8------------------------------------8-------------------------------|
|---10-------10------10---10b11r=10------10-------10--------------------------|
|-7----7---7----7--7----7--------------7----7---7----7--7-10-7-[10]b12r=10----|
|-----------------------------------------------------------------------------|
|-----------------------------------------------------------------------------|
|-----------------------------------------------------------------------------|


Both Gtrs
          PM    PM  PM    PM    PM  PM    PM    PM  PM    PM
|--------------------------------------------------------------------|
|--------------------------------------------------------------------|
|--------------------------------------------------------------------|
|--------------------------------------------------------------------|
|-0---2-3---2-3---0---2-3---6-1---0---2-3---2-3---0---2-3---6-1-1----|
|-0---2-3-0-2-3-0-0-0-2-3-0-6-1-1-0-0-2-3-0-2-3-0-0-0-2-3-0-6-1-1----|


          PM    PM  PM    PM    PM  PM    PM    PM----------------|
|----------------------------------------------------------------------------|
|----------------------------------------------------------------------------|
|----------------------------------------------------------------------------|
|----------------------------------------------------------------------------|
|-0---2-3---2-3---0---2-3---6-1---0---2-3---2-3-------------------------0----|
|-0---2-3-0-2-3-0-0-0-2-3-0-6-1-1-0-0-2-3-0-2-3-0-0-0-0-0-0-0-0-0-0-----0----|


Tablature Legend
----------------
 h   - hammer-on
 p   - pull-off
 b   - bend
 pb  - pre-bend
 r   - bend release (if no number after the r, then release immediately)
 /\  - slide into or out of (from/to "nowhere")
 s   - legato slide
 S   - shift slide
  - natural harmonic
[n]  - artificial harmonic
n(n) - tapped harmonic
 ~   - vibrato
 tr  - trill
 T   - tap
 TP  - trem. picking
 PM  - palm muting
\n/  - tremolo bar dip; n = amount to dip
 \n  - tremolo bar down
 n/  - tremolo bar up
/n\  - tremolo bar inverted dip
 =   - hold bend; also acts as connecting device for hammers/pulls
 <>  - volume swell (louder/softer)
 x   - on rhythm slash represents muted slash
 o   - on rhythm slash represents single note slash

Misc Legend
-----------
 |  - bar
||  - double bar
||o - repeat start
o|| - repeat end
*|  - double bar (ending)
 :  - bar (freetime)
 $  - Segno
 &  - Coda
Tempo markers -  = BPM(8/16=s8/s16), where s8 = swing 8ths, s16 = swing 16ths

Добавлено: 01.06.2012
Другие материалы по этой песне:
  • Аккорды и текст

Страница создана 03.04.2012
http://primanota.ru/annihilator/pastor-of-disaster-chords.htm
Привет, Гость.
Предлагаем пройти революционный курс по гитаре.
Подарок от PrimaNota.Ru, забирай!