PrimaNota.ru - самый крупный в мире бесплатный архив песенных текстов, аккордов, табулатур и нот


Annihilator - Schizos Are Never Alone - текст песни, таба, видео

Регистрация Запомнить меня
Войти через:  Facebook Google Twitter Vk Yandex Mail.ru

Annihilator - Schizos Are Never Alone - текст песни, таба, видео

Печатать
Просмотров: 154
Авторы музыки: Jeff Waters
Авторы текста: Jeff Waters
Annihilator - Schizos (Are Never Alone) Parts 1 & 2

tabbed by
ol753_357lo@yahoo.co.uk

Tuning - Drop 1/4 of a step


Gtr 1
play twice
                  PM------------|                 PM------------------|
|---------------------------------------------------------------------|
|---------------------------------------------------------------------|
|---------------------------------------------------------------------|
|-------8p7p5---------------------------8p7p5-------------------------|
|-8p7p5-------8p7-----------------8p7p5-------8p7---------------------|
|-----------------0-0-0-0-0-0-0-0-----------------0-0-0-0-0-0-0-0-----|


Gtr 2
play twice
  PM------------|                 PM-----------------------------------|
|----------------------------------------------------------------------|
|----------------------------------------------------------------------|
|----------------------------------------------------------------------|
|-----------------------8p7p5---------------------------8p7p5----------|
|-----------------8p7p5-------8p7-----------------8p7p5-------8p7------|
|-0-0-0-0-0-0-0-0-----------------0-0-0-0-0-0-0-0----------------------|


Both Gtrs
                 PM------------|                 PM-------------------|
|---------------------------------------------------------------------|
|---------------------------------------------------------------------|
|---------------------------------------------------------------------|
|-------8p7p5---------------------------8p7p5-------------------------|
|-8p7p5-------8p7-----------------8p7p5-------8p7---------------------|
|-----------------0-0-0-0-0-0-0-0-----------------0-0-0-0-0-0-0-0-----|


Gtr 1
                          PM------------|                         PM-----------|
|------------------------------------------------------------------------------|
|------------------------------------------------------------------------------|
|----------15p14p12--------------------------------15p14p12--------------------|
|-15p14p12----------15p14-----------------15p14p12----------15p14--------------|
|------------------------------------------------------------------------------|
|-------------------------0-0-0-0-0-0-0-0-------------------------0-0-0-0-\----|


Gtr 2
                          PM------------|                         PM-----------|
|------------------------------------------------------------------------------|
|------------------------------------------------------------------------------|
|----------19p17p15--------------------------------19p17p15--------------------|
|-19p17p15----------19p17-----------------19p17p15----------19p17--------------|
|------------------------------------------------------------------------------|
|-------------------------0-0-0-0-0-0-0-0-------------------------0-0-0-0------|


Gtr 1
|------------------------------------------|
|------------------------------------------|
|------------------------------------------|
|----------2--------3--------6--6-[6]-6----|
|-2--------0--------1--------4--4-----4----|
|-0----------------------------------------|

Gtr 2
|------------------------------------------|
|---------------------------------[5]------|
|------------------------------------------|
|----------2--------3--------6--6-----6----|
|-2--------0--------1--------4--4-----4----|
|-0----------------------------------------|


Both Gtrs
    PM|   PM|   PM|   PM|   PM|       PM|   PM|   PM|   PM|   PM|
|--------------------------------------------------------------------|
|--------------------------------------------------------------------|
|--------------------------------------------------------------------|
|-9-----9-----9-----9-----9---------7-----7-----7-----7-----7--------|
|---8-7---8-7---8-7---8-7---8-7-------6-5---6-5---6-5---6-5---6-5----|
|--------------------------------------------------------------------|


    PM|   PM|   PM|   PM|   PM|       PM|   PM|   PM|   PM|
|--------------------------------------------------------------|
|--------------------------------------------------------------|
|--------------------------------------------------------------|
|-3-----3-----3-----3-----3---------6-----6-----6-----6--------|
|---2-1---2-1---2-1---2-1---2-1-------5-4---5-4---5-4---5-4-\--|
|--------------------------------------------------------------|


Both Gtrs
  PM--------|     PM----------------|     PM-----------|
|------------------------------------------------------|
|------------------------------------------------------|
|------------------------------------------------------|
|-----------------------------------------------9------|
|-8-7-5-8-7-5-7h8---------8-7-5-8-7-5-7h8-------7------|
|-----------------0-0-0-0-----------------00-0---------|


  PM--------|     PM----------------|     PM-----------|
|------------------------------------------------------|
|------------------------------------------------------|
|------------------------------------------------------|
|--------------------------------------------9---------|
|-8-7-5-8-7-5-7h8---------8-7-5-8-7-5-7h8----7---------|
|-----------------0-0-0-0-----------------00----0------|


Both Gtrs
  PM--------|     PM----------------|     PM-----------|
|------------------------------------------------------|
|------------------------------------------------------|
|------------------------------------------------------|
|------------------------------------------------------|
|-8-7-5-8-7-5-7h8---------8-7-5-8-7-5-7h8--------------|
|-----------------0-0-0-0-----------------0-0-0-0------|


  PM--------|     PM----------------|     PM------------|
|-------------------------------------------------------|
|-------------------------------------------------------|
|-------------------------------------------------------|
|--------------------------------------------9----------|
|-8-7-5-8-7-5-7h8---------8-7-5-8-7-5-7h8----7----------|
|-----------------0-0-0-0-----------------00---0-0------|


Gtr 2
play 3 times, Gtr 1 accentuates parts
     PM------|     PM------|     PM--------------------------|
|------------------------------------------------------------|
|------------------------------------------------------------|
|------------------------------------------------------------|
|-3-------------3-------------3-----------------------5------|
|-1-------------1-------------1-----------------4--5--3------|
|----0-0-0-0-0-----0-0-0-0-0-----0-0-0-0-0-0-0--2--3---------|


4th time
|---------------------------------------|
|---------------------------------------|
|---------------------------------------|
|----------------------------------5----|
|-2--------------------------4--5--3----|
|-0--------------------------2--3-------|


Both Gtrs
     PM--------|    PM--------|    PM---------------------------|
|---------------------------------------------------------------|
|---------------------------------------------------------------|
|---------------------------------------------------------------|
|-3------------------------------------------------------5------|
|-1--------------8--------------8------------------4--5--3------|
|----0-0-0-0-0-0-6--0-0-0-0-0-0-6--0-0-0-0-0-0-0-0-2--3---------|


     PM--------|    PM-----------------------------|
|--------------------------------------------------|
|--------------------------------------------------|
|--------------------------------------------------|
|-3-------------------------------------------5----|
|-1--------------8----------------------4--5--3----|
|----0-0-0-0-0-0-6--0-0-0-0-0-0-\-------2--3-------|


Both Gtrs
play 3 times
     PM-----|     PM-----|     PM-----------------------|
|-------------------------------------------------------|
|-------------------------------------------------------|
|-------------------------------------------------------|
|-3------------3------------3--------------------5------|
|-1------------1------------1--------------4--5--3------|
|----0-0-0--0-----0--0--0------0--0--0--0--2--3---------|

4th time
     PM-----|     PM-----|     PM------------------------|
|--------------------------------------------------------|
|--------------------------------------------------------|
|--------------------------------------------------------|
|-3------------3------------3---------------------5------|
|-1------------1------------1---------------4--5--3------|
|----0-0-0--0-----0-0-0--0-----0-0-0--0--0--2--3---------|


Both Gtrs
play 3 times
       PM--------|       PM--------------------|
|----------------------------------------------|
|----------------------------------------------|
|--3p2---------------3p1--------------5p3------|
|-------------------------------------3--------|
|------0-0-0-0-0-0-------0-0-0-0-0-0-----------|
|----------------------------------------------|


4th time
        PM--------|        PM----------------------------|
|--------------------------------------------------------|
|--------------------------------------------------------|
|---3p2---------------3p1--------------------------------|
|--------------------------------------------------4-----|
|-------0-0-0-0-0-0--------0-0-------3-1-0---------2-----|
|------------------------------\-----------3-3-1-0-------|


Both Gtrs
play 4 times
     PM--------|    PM--------|    PM---------------------------|
|---------------------------------------------------------------|
|---------------------------------------------------------------|
|---------------------------------------------------------------|
|-3------------------------------------------------------5------|
|-1--------------8--------------8------------------4--5--3------|
|----0-0-0-0-0-0-6--0-0-0-0-0-0-6--0-0-0-0-0-0-0-0-2--3---------|


Both Gtrs
play 3 times
       PM--------|       PM--------------------|
|----------------------------------------------|
|----------------------------------------------|
|--3p2---------------3p1--------------5p3------|
|-------------------------------------3--------|
|------0-0-0-0-0-0-------0-0-0-0-0-0-----------|
|----------------------------------------------|


4th time
        PM--------|        PM----------------------------|
|--------------------------------------------------------|
|--------------------------------------------------------|
|---3p2---------------3p1--------------------------------|
|--------------------------------------------------4-----|
|-------0-0-0-0-0-0--------0-0-------3-1-0---------2-----|
|------------------------------\-----------3-3-1-0-------|


Both Gtrs
play twice
  PM-------------------------------------------------------------------|
|----------------------------------------------------------------------|
|----------------------------------------------------------------------|
|----------------------------------------------------------------------|
|----------------------------------------------------------------------|
|----------------------------------------------------------------------|
|-0-0-0-0-0-0-0-0-0-0-0-0-0-0-0-0-0-0-0-0-0-0-0-0-0-0-0-0-0-0-0-0------|


Gtr 1
                                  PM--|
|--------------------------------------------------------|
|--------------------------------------------------------|
|---------------------------------------7-6-5-4----------|
|-3------------------3---6--------------5-4-3-2----------|
|-1------------------1---4--------4-4-4---------5-4-3-2--|
|-----------------------------------------------3-2-1-0--|


Gtr 2
                                        PM--|
|---------------------------------------------------------------|
|---------------------------------------------------------------|
|---------------------------------------------7-6-5-4-----------|
|-15---------------------15\--6---------------5-4-3-2-----------|
|-13---------------------13\--4---------4-4-4---------5-4-3-2---|
|-----------------------------------------------------3-2-1-0---|


Both Gtrs
play 4 times
     PM--|     PM--|         PM|        PM------------|
|-----------------------------------------------------|
|-----------------------------------------------------|
|-----------------------------------------------------|
|-----------------------------------10----------------|
|-5---------8-------------9----------8----------------|
|-3--0-0-0--6--0-0-0--5---7--0-0-0------0-0-0--6------|


Both Gtrs
play twice
       PM|      PM----------------|      PM|      PM----------------------|
|-------------------------------------------------------------------------|
|-------------------------------------------------------------------------|
|-------------------------------------------------------------------------|
|-9S10------------------------------9S10---------------------3-----5-6----|
|-7S=8-----9S10---------------------7S=8-----9S10---------6--1--3--3-4----|
|------0-0-7S=8-0-0-0-0-0-0-6-5-3-0------0-0-7S=8-0-0-0-0-4-----1---------|


Gtr 1
play twice
       PM|      PM----------------|      PM|      PM----------------------------------|
|---------------------------------------------------------------------------------9---|
|-------------------------------------------------------------------------9-----8-----|
|-------------------------------------------------------------------9---8---7-7-------|
|-9S10------------------------------9S10----------------------9---8---7---------------|
|-7S=8-----9S10---------------------7S=8-----9S10-----------8---7---------------------|
|------0-0-7S=8-0-0-0-0-0-0-6-5-3-0------0-0-7S=8-0-0-0-0-7---------------------------|


Gtr 2
play twice
       PM|      PM----------------|      PM|      PM----------------------------------------------|
|---------------------------------------------------------------------------------------------12--|
|---------------------------------------------------------------------------------12-------11-----|
|------------------------------------------------------------------------12----11----10-10--------|
|-9S10------------------------------9S10------------------------12----11----10--------------------|
|-7S=8-----9S10---------------------7S=8-----9S10------------11----10-----------------------------|
|------0-0-7S=8-0-0-0-0-0-0-6-5-3-0------0-0-7S=8-0-0-0-0-10--------------------------------------|


Both Gtrs
play 3 times
       PM|      PM-----------------------|
|----------------------------------------|
|----------------------------------------|
|----------------------------------------|
|-9S10-----------------------------------|
|-7S=8-----9S10--------------------------|
|------0-0-7S=8-0-0-0-0-0-0-6-5-3-0------|


4th time
       PM|      PM----|
|----------------------------|
|----------------------------|
|----------------------------|
|-9S10-----------------------|
|-7S=8-----9S10---------8/---|
|------0-0-7S=8-0-0-0-0-6/---|


Fartmann fill


Both Gtrs
play 3 times
     PM--------|    PM--------|    PM---------------------------|
|---------------------------------------------------------------|
|---------------------------------------------------------------|
|---------------------------------------------------------------|
|-3------------------------------------------------------5------|
|-1--------------8--------------8------------------4--5--3------|
|----0-0-0-0-0-0-6--0-0-0-0-0-0-6--0-0-0-0-0-0-0-0-2--3---------|


Gtr 1
|------------------------------------|
|------------------------------------|
|------------------------------------|
|---9-8-----8-7-----7-6-----6-5------|
|-7-----7-6-----6-5-----5-4-----4----|
|------------------------------------|


Gtr 2
|-------------------------------------------|
|-------------------------------------------|
|-------------------------------------------|
|----12-11------11-10-----10-9-----9-8------|
|-10-------10-9-------9-8------8-7-----7----|
|-------------------------------------------|


Both Gtrs
play 3 times
       PM--------|       PM--------------------|
|----------------------------------------------|
|----------------------------------------------|
|--3p2---------------3p1--------------5p3------|
|-------------------------------------3--------|
|------0-0-0-0-0-0-------0-0-0-0-0-0-----------|
|----------------------------------------------|


4th time
        PM--------|        PM----------------------------|
|--------------------------------------------------------|
|--------------------------------------------------------|
|---3p2---------------3p1--------------------------------|
|--------------------------------------------------4-----|
|-------0-0-0-0-0-0--------0-0-------3-1-0---------2-----|
|------------------------------\-----------3-3-1-0-------|


Both Gtrs
play 4 times
     PM--|     PM--|         PM|        PM------------|
|-----------------------------------------------------|
|-----------------------------------------------------|
|-----------------------------------------------------|
|-----------------------------------10----------------|
|-5---------8-------------9----------8----------------|
|-3--0-0-0--6--0-0-0--5---7--0-0-0------0-0-0--6------|


Both Gtrs
     PM|    PM|    PM|           PM|    PM|    PM|
|-----------------------------------------------------------|
|-----------------------------------------------------------|
|-----------------------------------------------------------|
|-6------6------6------7-6-4--------------------------------|
|-4--4-4-4--4-4-4--4-4--------5------5------5------6-5-3----|
|-----------------------------3--3-3-3--3-3-3--3-3----------|


     PM|    PM|    PM|           PM|
|------------------------------------------------------|
|---------------------------------------14----12-------|
|------------------------------------------13----10----|
|-6------6------6------7-6-4---------------------------|
|-4--4-4-4--4-4-4--4-4--------5------5-----------------|
|-----------------------------3--3-3-3-----------------|


     PM|    PM|    PM|           PM|    PM|
|------------------------------------------------------------|
|------------------------------------------------------------|
|------------------------------------------------------------|
|-6------6------6------7-6-4----------------5S7-7-7-7S9-9----|
|-4--4-4-4--4-4-4--4-4--------5------5-----------------------|
|-----------------------------3--3-3-3--3-3-3S5-5-5-5S7-7----|


     PM|    PM|    PM|           PM|
|------------------------------------------------------|
|---------------------------------------14----12-------|
|------------------------------------------13----10----|
|-6------6------6------7-6-4---------------------------|
|-4--4-4-4--4-4-4--4-4--------5------5-----------------|
|-----------------------------3--3-3-3-----------------|


Both Gtrs
play twice
             PM|       PM|            PM|
|----------------------------------------------------|
|----------------------------------------------------|
|----------------------------------------------------|
|-6---6---6------6--6------9---9---9------4--4-------|
|-4---4---4--4-4-4--4--4-4-7---7---7------2--2--4----|
|-------------------------------------0-0-------2----|


|------------------------------------------------------|
|------------------------------------------------------|
|------------------------------------------------------|
|-7---6---6--6-6-6-6-6-6-6-6----------------4--4-------|
|-5---4---4--4-4-4-4-4-4-4-4-2---2---2---2--2--2--4----|
|----------------------------0---0---0---0--------2----|


Both Gtrs
|------|
|------|
|------|
|-6----|
|-4----|
|------|


Gtr 3
|-------------------------------------11h=12p11p9---11h=12p11p9---12b14r===12p9-|
|-12---------12---------------9-11-12-------------9-------------9---------------|
|-11b13------11b13----9-11-12---------------------------------------------------|
|-------------------------------------------------------------------------------|
|-------------------------------------------------------------------------------|
|-------------------------------------------------------------------------------|


                                                                  PM    PM
|-11h=12-11b12r=11p9----------9----9h14p9----9---------------------------------|
|--------------------9-12b14----12--------12---12p9----9-----------------------|
|---------------------------------------------------12---12p11p9----11----9----|
|----------------------------------------------------------------11----11------|
|------------------------------------------------------------------------------|
|------------------------------------------------------------------------------|


  PM|
|--------------------------------------------------|
|-----4h5p4---4-----4------------------------------|
|-6-6-------6---6-4---6-4-2-6-4-2---4-2------------|
|---------------------------------6-----6-4-2-6----|
|--------------------------------------------------|
|--------------------------------------------------|


|-----------------16--------------------------------------------------------------------------------16-17-19-19b21--|
|--------------16-----16----16-------------------------------------------------------------16-17-19-----------------|
|----------18------------18-18b20----------------------------------------13-14-16-14-16-17--------------------------|
|-------18---------------------------------------------11-13-14-13-14-16--------------------------------------------|
|-16-19---------------------------------------11-12-14--------------------------------------------------------------|
|------------------------------------11-12-14-----------------------------------------------------------------------|


Both Gtrs
  PM|
|------------|
|------------|
|------------|
|------------|
|-----8-8----|
|-4-4-6-6----|


Both Gtrs
play twice
  PM------------------------------------------------------|
|---------------------------------------------------------|
|---------------------------------------------------------|
|---------------------------------------------------------|
|-------------------------------------6--8--8s9-8--6------|
|---------------------------------6---4--6--6s7-6--4------|
|-4-6-6-6-6-6-6-6-6-6-6-6-6-6-6-6-4-----------------------|


Both Gtrs
play twice
  PM------------------------------------------------------|
|---------------------------------------------------------|
|---------------------------------------------------------|
|---------------------------------------------------------|
|-------------------------------------6--8--8s9-8--6------|
|---------------------------------6---4--6--6s7-6--4------|
|-4-6-6-6-4-6-6-6-4-6-6-6-4-6-6-6-4-----------------------|


Gtr 3
|-13b14r=13-9-----------6------8-------9--------11----6-6-6-6--6----------------|
|-------------11--------------------------------------7-7-7-7--6---/18--21b23---|
|-------------------5S6----6S8----8S10----10S11-------8-8-8-8--6---/18----------|
|-------------------------------------------------------------------------------|
|-------------------------------------------------------------------------------|
|-------------------------------------------------------------------------------|


|-13h16p13h14p13h14p13----13----------16-14-13---------------------------------------------------------|
|----------------------16----16-14-13----------16-14-13-------------------------------13h14------------|
|-------------------------------------------------------15-13-11-------------------15-------15p13S11---|
|----------------------------------------------------------------15-13-11-------15---------------------|
|-------------------------------------------------------------------------11-14------------------------|
|------------------------------------------------------------------------------------------------------|


                                            PM
|-----------13--11--9--8h9p8----8-----------------------------------------|
|----------------------------11---9---------------------------------------|
|-10h11h13-------------------------------------------------8--------------|
|-----------------------------------10h11-8---11-8-10---------11--[10]----|
|-------------------------------------------8---------8-11----------------|
|-------------------------------------------------------------------------|


Both Gtrs
|------------------------------|
|------------------------------|
|------------------------------|
|-9--7--------------------7----|
|-7--5-----------------2--5----|
|----------------------0-------|


|--------------------------------------------|
|--------------------------------------------|
|--------------------------------------------|
|-9--7-------------------7--5--4--5--7--9----|
|-7--5----------------2--5--3--2--3--5--7----|
|---------------------0----------------------|


Gtr 3
play 3 times
|-12-10-8---------12-10-8---------12-10-8---------12-10-8------------|
|---------12-10-8---------12-10-8---------12-10-8---------12-10-8----|
|--------------------------------------------------------------------|
|--------------------------------------------------------------------|
|--------------------------------------------------------------------|
|--------------------------------------------------------------------|

Gtr 4
play 3 times
|-8-7-5-------8-7-5-------8-7-5-------8-7-5----------|
|-------8-7-5-------8-7-5-------8-7-5-------8-7-5----|
|----------------------------------------------------|
|----------------------------------------------------|
|----------------------------------------------------|
|----------------------------------------------------|


Both Gtrs
4th time
|-12-10-8---------10-8-7--------8-7-5-------7-5-3-------8-7-5-------10-8-7--------12\-|
|---------12-10-8--------10-8-7-------8-7-5-------7-5-3-------8-7-5--------10-8-7-----|
|-------------------------------------------------------------------------------------|
|-------------------------------------------------------------------------------------|
|-------------------------------------------------------------------------------------|
|-------------------------------------------------------------------------------------|


Gtr 1
play 4 times
      PM----------|     PM-------------|
|--------------------------------------|
|--------------------------------------|
|--------------------------------------|
|-6S5---------------4S3----------------|
|-4S3---------------2S1----------------|
|-----0-0-0-0-0-0-0-----0-0-0-0-0------|


Gtr 2
play 4 times
  PM----|     PM-----------------------|
|--------------------------------------|
|--------------------------------------|
|--------------------------------------|
|---------5S4-------------3p2----------|
|---------3S2-------------1p0---3------|
|-0-0-0-0-----0-0-0-0-0-0-----2--------|


Both Gtrs
play 3 times
      PM|     PM--|     PM
|------------------------------------|
|------------------------------------|
|------------------------------------|
|-6S5-----5S4-------4S3---3p2--------|
|-4S3-----3S2-------2S1---1p0---3----|
|-----0-0-----0-0-0-----0-----2------|


Gtr 1
      PM|     PM--|     PM
|------------------------------------|
|------------------------------------|
|------------------------------------|
|-6S5-----5S4-------4S3---3p2--------|
|-4S3-----3S2-------2S1---1p0---3----|
|-----0-0-----0-0-0-----0-----2------|


Gtr 2
      PM|     PM--|     PM
|------------------------------------|
|------------------------------------|
|------------------------------------|
|-6S5-----5S4-------4S3---3p2--------|
|-4S3-----3S2-------2S1---1p0---6----|
|-----0-0-----0-0-0-----0-----5------|


repeated
       PM          PM
|----------------------------|
|----------------------------|
|----------------------------|
|-2-2---3p2-2-2-2---3p2-2----|
|-0-0---1p0-0-0-0---1p0-0----|
|-----0-----------0----------|


Tablature Legend
----------------
 h   - hammer-on
 p   - pull-off
 b   - bend
 pb  - pre-bend
 r   - bend release (if no number after the r, then release immediately)
 /\  - slide into or out of (from/to "nowhere")
 s   - legato slide
 S   - shift slide
  - natural harmonic
[n]  - artificial harmonic
n(n) - tapped harmonic
 ~   - vibrato
 tr  - trill
 T   - tap
 TP  - trem. picking
 PM  - palm muting
\n/  - tremolo bar dip; n = amount to dip
 \n  - tremolo bar down
 n/  - tremolo bar up
/n\  - tremolo bar inverted dip
 =   - hold bend; also acts as connecting device for hammers/pulls
 <>  - volume swell (louder/softer)
 x   - on rhythm slash represents muted slash
 o   - on rhythm slash represents single note slash

Misc Legend
-----------
 |  - bar
||  - double bar
||o - repeat start
o|| - repeat end
*|  - double bar (ending)
 :  - bar (freetime)
 $  - Segno
 &  - Coda
Tempo markers -  = BPM(8/16=s8/s16), where s8 = swing 8ths, s16 = swing 16ths
Добавлено: 17.06.2012
Другие материалы по этой песне:

Страница создана 17.06.2012
http://primanota.ru/annihilator/schizos-are-never-alone-chords.htm
Привет, Гость.
Предлагаем пройти революционный курс по гитаре.
Подарок от PrimaNota.Ru, забирай!