PrimaNota.ru - самый крупный в мире бесплатный архив песенных текстов, аккордов, табулатур и нот


Annihilator - Second To None - текст песни, таба, видео

Регистрация Запомнить меня
Войти через:  Facebook Google Twitter Vk Yandex Mail.ru

Annihilator - Second To None - текст песни, таба, видео

Печатать
Просмотров: 297
Annihilator - Second To None

tabbed by ol753
www.annihilatormetal.com
ol753_357lo@yahoo.co.uk

Tuning - E A D G B E


Both Gtrs
play twice
               PM              PM             PM
|------------------------------------------------------------------|
|------------------------------------------------------------------|
|------------------------------------------------------------------|
|-9----9-9-9S7-----9-9-9-9-9S7--------9-9-9S7-----9-9-9------------|
|-7----7-7-7S5-----7-7-7-7-7S5--------7-7-7S5-----7-7-7---3-3-3----|
|----0---------0-0-------------0-0--0---------0-0-------0-1-1-1----|


               PM              PM                   PM|   PM
|----------------------------------------------------------------|
|----------------------------------------------------------------|
|----------------------------------------------------------------|
|------9-9-9S7-----9-9-9-9-9S7-----------------------------------|
|------7-7-7S5-----7-7-7-7-7S5---1--1---3--3---5--5-----7---7----|
|-0--0---------0-0-------------0-3--3---5--5---6--6-6-8---8------|


Both Gtrs
               PM              PM             PM
|------------------------------------------------------------------|
|------------------------------------------------------------------|
|------------------------------------------------------------------|
|------9-9-9S7-----9-9-9-9-9S7--------9-9-9S7-----9-9-9------------|
|------7-7-7S5-----7-7-7-7-7S5--------7-7-7S5-----7-7-7---3-3-3----|
|-0--0---------0-0-------------0-0--0---------0-0-------0-1-1-1----|


               PM              PM          
|----------------------------------------------------------------|
|----------------------------------------------------------------|
|----------------------------------------------------------------|
|------9-9-9S7-----9-9-9-9-9S7------------------------5-5-5-5----|
|------7-7-7S5-----7-7-7-7-7S5---1--1---3--3---5--5---7-7-7-7----|
|-0--0---------0-0-------------0-3--3---5--5---6--6--------------|


               PM              PM             PM
|------------------------------------------------------------------|
|------------------------------------------------------------------|
|------------------------------------------------------------------|
|------9-9-9S7-----9-9-9-9-9S7--------9-9-9S7-----9-9-9------------|
|------7-7-7S5-----7-7-7-7-7S5--------7-7-7S5-----7-7-7---3-3-3----|
|-0--0---------0-0-------------0-0--0---------0-0-------0-1-1-1----|


       PM     PM     PM             PM     PM     PM|   PM
|------------------------------------------------------------|
|------------------------------------------------------------|
|------------------------------------------------------------|
|----------------------5-5-5---------------------------------|
|-1--1---3--3---5--5---7-7-7---1--1---3--3---5--5-----7------|
|-3--3---5--5---6--6-0---------3--3---5--5---6--6-6-8---8----|


                        PM
|-------------------------------------|
|-------------------------------------|
|-------------------------------------|
|-------------------------5-5-5-5\----|
|-1--1---3--3---3--5--5---7-7-7-7\----|
|-3--3---5--5---5--6--6-0-------------|


Gtr 3
|------7-7-7-7-----7-7-7-7-7-7------7-7-7-7----7-7-7-7--8--8--8---|
|------8-8-8-7-----8-8-8-8-8-7------8-8-8-7----8-8-8-7--9--9--9---|
|------9-9-9-7-----9-9-9-9-9-7------9-9-9-7----9-9-9-7-10-10-10---|
|-----------------------------------------------------------------|
|-----------------------------------------------------------------|
|-----------------------------------------------------------------|


|------7-7-7-7-----7-7-7-7-7-7---3------5-------6--------8-------|
|------8-8-8-7-----8-8-8-8-8-7---6b8----8b10----9b11----11b13----|
|------9-9-9-7-----9-9-9-9-9-7-----------------------------------|
|----------------------------------------------------------------|
|----------------------------------------------------------------|
|----------------------------------------------------------------|


|------7-7-7-7-----7-7-7-7-7-7------7-7-7-7----7-7-7-7--8--8--8---|
|------8-8-8-7-----8-8-8-8-8-7------8-8-8-7----8-8-8-7--9--9--9---|
|------9-9-9-7-----9-9-9-9-9-7------9-9-9-7----9-9-9-7-10-10-10---|
|-----------------------------------------------------------------|
|-----------------------------------------------------------------|
|-----------------------------------------------------------------|


|------7-7-7-7-----7-7-7-7-7-7---3------5-------6--------8-------|
|------8-8-8-7-----8-8-8-8-8-7---6b8----8b10----9b11----11b13----|
|------9-9-9-7-----9-9-9-9-9-7-----------------------------------|
|----------------------------------------------------------------|
|----------------------------------------------------------------|
|----------------------------------------------------------------|


|-6-------8------10------12------10------12------13------15-------|
|-9b11---11b13---13b15---15b17---13b15---15b17---16b18---18b20----|
|-----------------------------------------------------------------|
|-----------------------------------------------------------------|
|-----------------------------------------------------------------|
|-----------------------------------------------------------------|


Both Gtrs
play twice
  PM|   PM    PM  PM  PM|         PM|   PM    PM  PM
|------------------------------------------------------------|
|------------------------------------------------------------|
|------------------------------------------------------------|
|------------------------------------------------------------|
|-----8---7S8---5---7-----4S5-4S5-----8---7S8---5---7--------|
|-0-0-6-0-5S6-0-3-0-5-0-0-2S3-2S3-0-0-6-0-5S6-0-3-0-5----\---|

 
Pre-Verse
Both Gtrs
  PM|   PM    PM  PM  PM|         PM|   PM    PM  PM  PM----|
|-------------------------------------------------------------------|
|-------------------------------------------------------------------|
|-------------------------------------------------------------------|
|-------------------------------------------------------------10----|
|-----8---7S8---5---7-----4S5-4S5-----8---7S8---5---7----------8----|
|-0-0-6-0-5S6-0-3-0-5-0-0-2S3-2S3-0-0-6-0-5S6-0-3-0-5-0-0-0-0-------|


  PM|   PM    PM  PM  PM|         PM|   PM    PM----------------|
|--------------------------------------------------------------------|
|--------------------------------------------------------------------|
|-------------------------------------------------3------------------|
|---------------------------------------------------5-3--------------|
|-----8---7S8---5---7-----4S5-4S5-----8---7S8-----------5-5-4-3------|
|-0-0-6-0-5S6-0-3-0-5-0-0-2S3-2S3-0-0-6-0-5S6-0-0---------------6----|



Gtr 3
play twice
  T        T        T        T        T        T        T        T
|-16-13p12-16-13p12-16-13p12-16-13p12-16-13p12-16-13p12-16-13p12-16-13p12----|
|----------------------------------------------------------------------------|
|----------------------------------------------------------------------------|
|----------------------------------------------------------------------------|
|----------------------------------------------------------------------------|
|----------------------------------------------------------------------------|

play twice
  T        T        T        T        T        T        T        T
|-19-13p12-19-13p12-19-13p12-19-13p12-19-13p12-19-13p12-19-13p12-19-13p12----|
|----------------------------------------------------------------------------|
|----------------------------------------------------------------------------|
|----------------------------------------------------------------------------|
|----------------------------------------------------------------------------|
|----------------------------------------------------------------------------|


  T        T        T        T        T        T        T        T
|-20-13p12-20-13p12-20-13p12-20-13p12-20-13p12-20-13p12-20-13p12-20-13p12----|
|----------------------------------------------------------------------------|
|----------------------------------------------------------------------------|
|----------------------------------------------------------------------------|
|----------------------------------------------------------------------------|
|----------------------------------------------------------------------------|


  T        T        T        T        T        T        T        T
|-20-13p12-20-13p12-20-13p12-20-13p12-20-13p12-20-13p12-20-13p12-20-13p12-20b22----|
|----------------------------------------------------------------------------------|
|----------------------------------------------------------------------------------|
|----------------------------------------------------------------------------------|
|----------------------------------------------------------------------------------|
|----------------------------------------------------------------------------------|


Verse
Both Gtrs
  PM|   PM    PM  PM  PM------------|   PM    PM  PM  PM----|
|-------------------------------------------------------------------|
|-------------------------------------------------------------------|
|-------------------------------------------------------------------|
|-------------------------------------------------------------10----|
|-----8---7S8---5---7-----------------8---7S8---5---7----------8----|
|-0-0-6-0-5S6-0-3-0-5-0-0-0-0-0-0-0-0-6-0-5S6-0-3-0-5-0-0-0-0-------|


  PM|   PM    PM  PM  PM------------|   PM    PM  PM  PM----|
|--------------------------------------------------------------------|
|--------------------------------------------------------------------|
|--------------------------------------------------------------------|
|--------------------------------------------------------------------|
|-----8---7S8---5---7-----------------8---7S8---5---7---------8-8----|
|-0-0-6-0-5S6-0-3-0-5-0-0-0-0-0-0-0-0-6-0-5S6-0-3-0-5-0-0-0-0-6-6----|


  PM|   PM    PM  PM  PM------------|   PM    PM  PM  PM----|
|-------------------------------------------------------------------|
|-------------------------------------------------------------------|
|-------------------------------------------------------------------|
|-------------------------------------------------------------10----|
|-----8---7S8---5---7-----------------8---7S8---5---7----------8----|
|-0-0-6-0-5S6-0-3-0-5-0-0-0-0-0-0-0-0-6-0-5S6-0-3-0-5-0-0-0-0-------|


  PM|   PM    PM  PM  PM--------------|   PM    PM  PM  PM----|
|-------------------------------------------------------------------|
|-------------------------------------------------------------------|
|-------------------------------------------------------------------|
|-------------------------------------------------------------------|
|-----8---7S8---5---7-------------------8---7S8---5---7---------8---|
|-0-0-6-0-5S6-0-3-0-5-0-0-00-0-00-0-0-0-6-0-5S6-0-3-0-5-0-0-0-0-6---|


Chorus
Both Gtrs
                                                            PM
|---------------------------------------------------0-0-0-0------|
|---------------------------------------------------9-9-9-9------|
|---------------------------------------------------7-7-7-7------|
|----------------------------------------------------------------|
|-5S=7-7-7-7-7---5S=7-7-7-7-7---5--7-5---------------------------|
|-3S=5-5-5-5-5-0-3S=5-5-5-5-5-0-3--5-3-0-6-5-3-0--0---------0----|


|------------------------------------------------------|
|------------------------------------------------------|
|------------------------------------------------------|
|------------------------------------------------------|
|-5S=7-7-7-7-7---5S=7-7-7-7-7---5--7-5---------2--2----|
|-3S=5-5-5-5-5-0-3S=5-5-5-5-5-0-3--5-3-0-6-5-3-0--0----|


Repeat Pre-Verse
Repeat Verse


Chorus
Both Gtrs
play 3 times
                                                            PM
|---------------------------------------------------0-0-0-0------|
|---------------------------------------------------9-9-9-9------|
|---------------------------------------------------7-7-7-7------|
|----------------------------------------------------------------|
|-5S=7-7-7-7-7---5S=7-7-7-7-7---5--7-5---------------------------|
|-3S=5-5-5-5-5-0-3S=5-5-5-5-5-0-3--5-3-0-6-5-3-0--0---------0----|


4th time
                                       PM----|
|-------------------------------------------------|
|-------------------------------------------------|
|-------------------------------------------------|
|-------------------------------------------------|
|-5S=7-7-7-7-7---5S=7-7-7-7---5--7-5--------------|
|-3S=5-5-5-5-5-0-3S=5-5-5-5-0-3--5-3-0-6-5-3-2----|



Both Gtrs
play 3 times
|------------------------------------------|
|------------------------------------------|
|------------------------------------------|
|--------------------------4S3-------------|
|-2-2-----4-4------2-2-----2S1---2----6----|
|-0-0-----2-2------0-0---------2-0--2-4----|


Gtr 3
play 3 times
|----------------------------------------------------------------------------------------|
|------12------12-----------11------11-----------12------12------11b12r11----------------|
|-9-12----9-12----9-12-9-11----9-11----9-11-9-12----9-12----12-9----------11-9--11-13----|
|----------------------------------------------------------------------------------------|
|----------------------------------------------------------------------------------------|
|----------------------------------------------------------------------------------------|


Both Gtrs
play 4 times
  PM--------------------------------------------|
|-----------------------------------------------------------------|
|-----------------------------------------------------------------|
|-----------------------------------------------------------------|
|-------------------------------------------------4S3-------------|
|-----2-----2---------1-----1---------2-----2-----2S1---2--4-6----|
|-0-3---0-3---0-3-0-2---0-2---0-2-0-3---0-3---3-0-----2-0--2-4----|


Gtr 3
joins 3rd time
  PM--------------------------------------------|
|------------------------------------------------------------------------|
|------------------------------------------------------------------------|
|------------------------------------------------------------------------|
|------9------9----------8-----8----------9------9------9p8--------------|
|-7-10---7-10---7-10-7-9---7-9---7-9-7-10---7-10---10-7-----9-7--9-11----|
|------------------------------------------------------------------------|



Both Gtrs
play 4 times, Gtr 3 Lead (to be added)
                                       PM     PM|
|--------------------2----------4-------------------------|
|--------------------2--------7---------------------------|
|-------4----------4--------6-----------------------------|
|-----8----------4--------4-------------------------------|
|---6----------2-------------------------2--------1-2--1--|
|-4---------------------------------0--0---0--2-4---------|


Both Gtrs
play twice, Gtr 3 & 4
     PM           PM           PM           PM
|-------------------------------------------------------|
|-------------------------------------------------------|
|-------------------------------------------------------|
|-------------------------------------------------------|
|-6----6--6--4-6----6--6--4-2----2--2-2--4----4--4-4----|
|-4--4-4--4--2-4--4-4--4--2-0--0-0--0-0--2--2-2--2-2----|


Gtr 3
play twice
|-------0----------------------------------------------|
|-------2----------------------------------------------|
|-1-3-4---------------------4--4---------3-4--3--------|
|---------------------2-4-6------6-4-4-6--------6-4----|
|------------------------------------------------------|
|------------------------------------------------------|


Gtr 4
play twice
|-------0----------------------------------------------|
|-0-2-4-4-------------------4--4-----------4-----------|
|---------------------1-3-4------4-3-3-4-6----6-4-3----|
|------------------------------------------------------|
|------------------------------------------------------|
|------------------------------------------------------|


Both Gtrs
play 4 times, Gtr 3 Lead (to be added)
     PM           PM           PM           PM
|-------------------------------------------------------|
|-------------------------------------------------------|
|-------------------------------------------------------|
|-4----4--4--2-4----4--4--2--------------2----2--2-2----|
|-2--2-2--2--0-2--2-2--2--0-5----5--5-5--0--0-0--0-0----|
|---------------------------3--3-3--3-3-----------------|


Both Gtrs
|----------------------------------|
|----------------------------------|
|----------------------------------|
|------------------2---------------|
|-5----------------0---------------|
|-3--------------------------------|


Gtr 1
|----------------------------------|
|----------------------------------|
|-0--------------------------------|
|-0----------------2----------8----|
|-2----------------0----------6----|
|-3--------------------------------|


Gtr 2
|----------------------------------|
|----------------------------------|
|-0---------------------------6----|
|-0----------------2----------4----|
|-2----------------0---------------|
|-3--------------------------------|


Both Gtrs
play 3 times
     PM           PM           PM           PM
|-------------------------------------------------------|
|-------------------------------------------------------|
|-------------------------------------------------------|
|-------------------------------------------------------|
|-6----6--6--4-6----6--6--4-2----2--2-2--4----4--4-4----|
|-4--4-4--4--2-4--4-4--4--2-0--0-0--0-0--2--2-2--2-2----|


Gtr 1
4th time
     PM           PM           PM
|--------------------------------------------------|
|--------------------------------------------------|
|--------------------------------------------------|
|---------------------------------------------8----|
|-6----6--6--4-6----6--6--4-2----2--2-2--7----6----|
|-4--4-4--4--2-4--4-4--4--2-0--0-0--0-0--5---------|


Gtr 2
4th time
     PM           PM           PM
|--------------------------------------------------|
|--------------------------------------------------|
|---------------------------------------------6----|
|----------------------------------------5----4----|
|-6----6--6--4-6----6--6--4-2----2--2-2--3---------|
|-4--4-4--4--2-4--4-4--4--2-0--0-0--0-0------------|



Gtr 3
play 3 times
|-------0----------------------------------------------|
|-------2----------------------------------------------|
|-1-3-4---------------------4--4---------3-4--3--------|
|---------------------2-4-6------6-4-4-6--------6-4----|
|------------------------------------------------------|
|------------------------------------------------------|


4th time
|-------0----------------------------------------------|
|-------2----------------------------------------------|
|-1-3-4---------------------4--4-----------------------|
|---------------------2-4-6------6-4-------------------|
|------------------------------------------------------|
|------------------------------------------------------|


Gtr 4
play 3 times
|-------0----------------------------------------------|
|-0-2-4-4-------------------4--4-----------4-----------|
|---------------------1-3-4------4-3-3-4-6----6-4-3----|
|------------------------------------------------------|
|------------------------------------------------------|
|------------------------------------------------------|


4th time
|-------0----------------------------------------------|
|-0-2-4-4-------------------4--4-----------------------|
|---------------------1-3-4------4-3-------------------|
|------------------------------------------------------|
|------------------------------------------------------|
|------------------------------------------------------|


Verse
Both Gtrs
  PM|   PM    PM  PM  PM-----------|   PM    PM  PM  PM----|
|------------------------------------------------------------------|
|------------------------------------------------------------------|
|------------------------------------------------------------------|
|------------------------------------------------------------10----|
|-----8---7S8---5---7----------------8---7S8---5---7----------8----|
|-0-0-6-0-5S6-0-3-0-5-0-0-00-0-0-0-0-6-0-5S6-0-3-0-5-0-0-0-0-------|


  PM|   PM    PM  PM  PM--------------|   PM    PM  PM  PM----|
|----------------------------------------------------------------------|
|----------------------------------------------------------------------|
|----------------------------------------------------------------------|
|----------------------------------------------------------------------|
|-----8---7S8---5---7-------------------8---7S8---5---7---------8------|
|-0-0-6-0-5S6-0-3-0-5-000-000000000-0-0-6-0-5S6-0-3-0-5-0-0-0-0-6------|


Chorus
Both Gtrs
play 3 times
                                                            PM
|---------------------------------------------------0-0-0-0------|
|---------------------------------------------------9-9-9-9------|
|---------------------------------------------------7-7-7-7------|
|----------------------------------------------------------------|
|-5S=7-7-7-7-7---5S=7-7-7-7-7---5--7-5---------------------------|
|-3S=5-5-5-5-5-0-3S=5-5-5-5-5-0-3--5-3-0-6-5-3-0--0---------0----|


4th time
|------------------------------------------------------|
|------------------------------------------------------|
|------------------------------------------------------|
|------------------------------------------------------|
|-5S=7-7-7-7-7---5S=7-7-7-7-7---5--7-5---------2--2----|
|-3S=5-5-5-5-5-0-3S=5-5-5-5-5-0-3--5-3-0-6-5-3-0--0----|


Repeat Intro 


Tablature Legend
----------------
 h   - hammer-on
 p   - pull-off
 b   - bend
 pb  - pre-bend
 r   - bend release (if no number after the r, then release immediately)
 /\  - slide into or out of (from/to "nowhere")
 s   - legato slide
 S   - shift slide
  - natural harmonic
[n]  - artificial harmonic
n(n) - tapped harmonic
 ~   - vibrato
 tr  - trill
 T   - tap
 TP  - trem. picking
 PM  - palm muting
\n/  - tremolo bar dip; n = amount to dip
 \n  - tremolo bar down
 n/  - tremolo bar up
/n\  - tremolo bar inverted dip
 =   - hold bend; also acts as connecting device for hammers/pulls
 <>  - volume swell (louder/softer)
 x   - on rhythm slash represents muted slash
 o   - on rhythm slash represents single note slash

Misc Legend
-----------
 |  - bar
||  - double bar
||o - repeat start
o|| - repeat end
*|  - double bar (ending)
 :  - bar (freetime)
 $  - Segno
 &  - Coda
Tempo markers -  = BPM(8/16=s8/s16), where s8 = swing 8ths, s16 = swing 16ths

Добавлено: 10.05.2012
Другие материалы по этой песне:

Страница создана 15.04.2012
http://primanota.ru/annihilator/second-to-none-chords.htm
Привет, Гость.
Предлагаем пройти революционный курс по гитаре.
Подарок от PrimaNota.Ru, забирай!