PrimaNota.ru - самый крупный в мире бесплатный архив песенных текстов, аккордов, табулатур и нот


Annihilator - Reaction - текст песни, таба, видео

Регистрация Запомнить меня
Войти через:  Facebook Google Twitter Vk Yandex Mail.ru

Annihilator - Reaction - текст песни, таба, видео

Печатать
Просмотров: 167
Авторы музыки: Jeff Waters
Авторы текста: Jeff Waters
Annihilator - Reaction

tabbed by ol753
www.annihilatormetal.com
ol753_357lo@yahoo.co.uk

Tuning - D A D G B E


Gtr 1
  PM-----------------|      PM-----------------------|
|-----------------------------------------------------------|
|-----------------------------------------------------------|
|-----------------------------------------------------------|
|-----------------------------------------------------------|
|----------------------6--5----------------------------3----|
|-0--5-3-0-5-3-0-5-3-0-6--5-0--5-3-0-5-3-0-5-3-0-5-3-0-3----|


  PM-----------------|      PM-----|                   PM
|-----------------------------------------------------------|
|-----------------------------------------------------------|
|-----------------------------------------------------------|
|------------------------------------------5p3p0------------|
|----------------------6--5----------5p3p0-------5p3p0------|
|-0--5-3-0-5-3-0-5-3-0-6--5-0--5-3-0-------------------3----|


Both Gtrs
play 3 times
  PM-----------------|      PM-----------------------|
|-----------------------------------------------------------|
|-----------------------------------------------------------|
|-----------------------------------------------------------|
|-----------------------------------------------------------|
|----------------------6--5----------------------------3----|
|-0--5-3-0-5-3-0-5-3-0-6--5-0--5-3-0-5-3-0-5-3-0-5-3-0-3----|


  PM-----------------|      PM-----|                   PM
|-----------------------------------------------------------|
|-----------------------------------------------------------|
|-----------------------------------------------------------|
|------------------------------------------5p3p0------------|
|----------------------6--5----------5p3p0-------5p3p0------|
|-0--5-3-0-5-3-0-5-3-0-6--5-0--5-3-0-------------------3----|


Both Gtrs
play 3 times
  PM------------------------------------------------------------|
|--------------------------------------------------------------------|
|--------------------------------------------------------------------|
|--------------------------------------------------------------------|
|--------------------------------------------------------------------|
|-----------------------------------------------*--------------------| * 3rd and 4th time 
|-2-0-0-2-0-0-2-0-0-0-0-0-0-0-0-0-2-0-0-2-0-0-2-0-0-0-0-0-0-0-0-0----|   Harmonics slides


4th time
  PM----------------------------|
|---------------------------------|
|---------------------------------|
|---------------------------------|
|---------------------------------|
|---------------------------------|
|-2-0-0-2-0-0-2-0-0-0-0-0-0-0-0-0-|


Both Gtrs
|------------------|
|------------------|
|------------------|
|------------------|
|-2--0--3-2-1-3----|
|-2--0--3-2-1-3----|


Both Gtrs
play twice
  PM-----------------|      PM-----------------------|
|-----------------------------------------------------------|
|-----------------------------------------------------------|
|-----------------------------------------------------------|
|-----------------------------------------------------------|
|----------------------6--5----------------------------3----|
|-0--5-3-0-5-3-0-5-3-0-6--5-0--5-3-0-5-3-0-5-3-0-5-3-0-3----|


  PM-----------------|      PM-----|                   PM
|-----------------------------------------------------------|
|-----------------------------------------------------------|
|-----------------------------------------------------------|
|------------------------------------------5p3p0------------|
|----------------------6--5----------5p3p0-------5p3p0------|
|-0--5-3-0-5-3-0-5-3-0-6--5-0--5-3-0-------------------3----|


Verse
Both Gtrs
play twice
  PM-----------------|      PM-----------------------|
|-----------------------------------------------------------|
|-----------------------------------------------------------|
|-----------------------------------------------------------|
|-----------------------------------------------------------|
|----------------------6--5----------------------------3----|
|-0--0-0-0-0-0-0-0-0-0-6--5-0--0-0-0-0-0-0-0-0-0-0-0-0-3----|


  PM-----------------|      PM-----|                   PM
|-----------------------------------------------------------|
|-----------------------------------------------------------|
|-----------------------------------------------------------|
|------------------------------------------5p3p0------------|
|----------------------6--5----------5p3p0-------5p3p0------|
|-0--0-0-0-0-0-0-0-0-0-6--5-0--5-3-0-------------------3----|


Both Gtrs
play 3 times
  PM------------------------------------------------------------|
|--------------------------------------------------------------------|
|--------------------------------------------------------------------|
|--------------------------------------------------------------------|
|--------------------------------------------------------------------|
|-----------------------------------------------*--------------------| * 3rd and 4th time 
|-2-0-0-2-0-0-2-0-0-0-0-0-0-0-0-0-2-0-0-2-0-0-2-0-0-0-0-0-0-0-0-0----|   Harmonics slides


4th time
  PM----------------------------|
|---------------------------------|
|---------------------------------|
|---------------------------------|
|---------------------------------|
|---------------------------------|
|-2-0-0-2-0-0-2-0-0-0-0-0-0-0-0-0-|


Both Gtrs
|------------------|
|------------------|
|------------------|
|------------------|
|-2--0--3-2-1-3----|
|-2--0--3-2-1-3----|


Both Gtrs
play twice, Gtr 3 Lead (to be added)
  PM-----------------|      PM-----------------------|
|-----------------------------------------------------------|
|-----------------------------------------------------------|
|-----------------------------------------------------------|
|-----------------------------------------------------------|
|----------------------6--5----------------------------3----|
|-0--0-0-0-0-0-0-0-0-0-6--5-0--0-0-0-0-0-0-0-0-0-0-0-0-3----|


  PM-----------------|      PM-----|                   PM
|-----------------------------------------------------------|
|-----------------------------------------------------------|
|-----------------------------------------------------------|
|------------------------------------------5p3p0------------|
|----------------------6--5----------5p3p0-------5p3p0------|
|-0--0-0-0-0-0-0-0-0-0-6--5-0--5-3-0-------------------3----|


Repeat Verse


Both Gtrs
play 3 times
  PM------------------------------------------------------------|
|--------------------------------------------------------------------|
|--------------------------------------------------------------------|
|--------------------------------------------------------------------|
|--------------------------------------------------------------------|
|-----------------------------------------------*--------------------| * 3rd and 4th time 
|-2-0-0-2-0-0-2-0-0-0-0-0-0-0-0-0-2-0-0-2-0-0-2-0-0-0-0-0-0-0-0-0----|   Harmonics slides


4th time
  PM----------------------------|
|---------------------------------|
|---------------------------------|
|---------------------------------|
|---------------------------------|
|---------------------------------|
|-2-0-0-2-0-0-2-0-0-0-0-0-0-0-0-0-|


Both Gtrs
|------------------|
|------------------|
|------------------|
|------------------|
|-2--0--3-2-1-3----|
|-2--0--3-2-1-3----|


Both Gtrs
play twice, Gtr 3 Lead (to be added)
  PM-----------------|      PM-----------------------|
|-----------------------------------------------------------|
|-----------------------------------------------------------|
|-----------------------------------------------------------|
|-----------------------------------------------------------|
|----------------------6--5----------------------------3----|
|-0--0-0-0-0-0-0-0-0-0-6--5-0--0-0-0-0-0-0-0-0-0-0-0-0-3----|


  PM-----------------|      PM-----|                   PM
|-----------------------------------------------------------|
|-----------------------------------------------------------|
|-----------------------------------------------------------|
|------------------------------------------5p3p0------------|
|----------------------6--5----------5p3p0-------5p3p0------|
|-0--0-0-0-0-0-0-0-0-0-6--5-0--5-3-0-------------------3----|


Both Gtrs
play 7 times, Gtr 3 & 4 (to be added)
  PM----------------------------|
|------------------------------------|
|------------------------------------|
|------------------------------------|
|------------------------------------|
|------------------------------------|
|-2-2-2-2-2-2-2-2-0-0-0-0-0-0-0-0----|


8th time
|---------------|
|---------------|
|---------------|
|---------------|
|-2--0--3--4----|
|-2--0--3--4----|


Gtr 1
  PM-----------------|      PM-----------------------|
|-----------------------------------------------------------|
|-----------------------------------------------------------|
|-----------------------------------------------------------|
|-----------------------------------------------------------|
|----------------------6--5----------------------------3----|
|-0--5-3-0-5-3-0-5-3-0-6--5-0--5-3-0-5-3-0-5-3-0-5-3-0-3----|


Gtr 2 joins
  PM-----------------|      PM-----|                   PM
|-----------------------------------------------------------|
|-----------------------------------------------------------|
|-----------------------------------------------------------|
|------------------------------------------5p3p0------------|
|----------------------6--5----------5p3p0-------5p3p0------|
|-0--5-3-0-5-3-0-5-3-0-6--5-0--5-3-0-------------------3----|


Both Gtrs
play twice
  PM-----------------|      PM-----------------------|
|-----------------------------------------------------------|
|-----------------------------------------------------------|
|-----------------------------------------------------------|
|-----------------------------------------------------------|
|----------------------6--5----------------------------3----|
|-0--5-3-0-5-3-0-5-3-0-6--5-0--5-3-0-5-3-0-5-3-0-5-3-0-3----|


  PM-----------------|      PM-----|                   PM
|-----------------------------------------------------------|
|-----------------------------------------------------------|
|-----------------------------------------------------------|
|------------------------------------------5p3p0------------|
|----------------------6--5----------5p3p0-------5p3p0------|
|-0--5-3-0-5-3-0-5-3-0-6--5-0--5-3-0-------------------3----|


Both Gtrs
play 3 times
  PM------------------------------------------------------------|
|--------------------------------------------------------------------|
|--------------------------------------------------------------------|
|--------------------------------------------------------------------|
|--------------------------------------------------------------------|
|-----------------------------------------------*--------------------| * 3rd and 4th time 
|-2-0-0-2-0-0-2-0-0-0-0-0-0-0-0-0-2-0-0-2-0-0-2-0-0-0-0-0-0-0-0-0----|   Harmonics slides


4th time
  PM----------------------------|
|---------------------------------|
|---------------------------------|
|---------------------------------|
|---------------------------------|
|---------------------------------| 
|-2-0-0-2-0-0-2-0-0-0-0-0-0-0-0-0-|


Both Gtrs
|------------------|
|------------------|
|------------------|
|------------------|
|-2--0--3-2-1-3----|
|-2--0--3-2-1-3----|


Both Gtrs
play 7 times
  PM----------------------------|
|------------------------------------|
|------------------------------------|
|------------------------------------|
|------------------------------------|
|------------------------------------|
|-2-2-2-2-2-2-2-2-0-0-0-0-0-0-0-0----|


Both Gtrs
|------------------|
|------------------|
|------------------|
|------------------|
|-2--0--3-2-1-3----|
|-2--0--3-2-1-3----|


Both Gtrs
play 4 times
  PM-----------------|      PM-----------------------|
|-----------------------------------------------------------|
|-----------------------------------------------------------|
|-----------------------------------------------------------|
|-----------------------------------------------------------|
|----------------------6--5----------------------------3----|
|-0--5-3-0-5-3-0-5-3-0-6--5-0--5-3-0-5-3-0-5-3-0-5-3-0-3----|


  PM-----------------|      PM-----|                   PM
|-----------------------------------------------------------|
|-----------------------------------------------------------|
|-----------------------------------------------------------|
|------------------------------------------5p3p0------------|
|----------------------6--5----------5p3p0-------5p3p0------|
|-0--5-3-0-5-3-0-5-3-0-6--5-0--5-3-0-------------------3----|


Gtr 1
play twice
  PM-----------------|      PM-----------------------|
|-----------------------------------------------------------|
|-----------------------------------------------------------|
|-----------------------------------------------------------|
|-----------------------------------------------------------|
|----------------------6--5----------------------------3----|
|-0--5-3-0-5-3-0-5-3-0-6--5-0--5-3-0-5-3-0-5-3-0-5-3-0-3----|


  PM-----------------|      PM-----|                   PM
|-----------------------------------------------------------|
|-----------------------------------------------------------|
|-----------------------------------------------------------|
|------------------------------------------5p3p0------------|
|----------------------6--5----------5p3p0-------5p3p0------|
|-0--5-3-0-5-3-0-5-3-0-6--5-0--5-3-0-------------------3----|


Gtr 2
  PM-------------------------------------------|
|---------------------------------------------------|
|---------------------------------------------------|
|---------------------------------------------------|
|---------------------------------------------------|
|---------------------------------------------------|
|-0--0--0--0--0--0--0--0--0--0--0--0--0--0--0--0----|


  PM----------------------------|
|------------------------------------|
|------------------------------------|
|------------------------------------|
|------------------------------------|
|------------------------------------|
|-0-0-0-0-0-0-0-0-0-0-0-0-0-0-0-0----|


  PM----------------------------------------------------|
|------------------------------------------------------------|
|------------------------------------------------------------|
|------------------------------------------------------------|
|------------------------------------------------------------|
|------------------------------------------------------------|
|-0-0-0-0-0-0-0-0-0-0-0-0-0-0-0-0-0-0-0-0-0-0-0-0-0-0-0-0-\--|


Both Gtrs
play twice
  PM-----------------|      PM-----------------------|
|-----------------------------------------------------------|
|-----------------------------------------------------------|
|-----------------------------------------------------------|
|-----------------------------------------------------------|
|----------------------6--5----------------------------3----|
|-0--5-3-0-5-3-0-5-3-0-6--5-0--5-3-0-5-3-0-5-3-0-5-3-0-3----|


  PM-----------------|      PM-----|                   PM
|-----------------------------------------------------------|
|-----------------------------------------------------------|
|-----------------------------------------------------------|
|------------------------------------------5p3p0------------|
|----------------------6--5----------5p3p0-------5p3p0------|
|-0--5-3-0-5-3-0-5-3-0-6--5-0--5-3-0-------------------3----|


Both Gtrs
  PM-----------------|      PM-----------------------|
|-----------------------------------------------------------|
|-----------------------------------------------------------|
|-----------------------------------------------------------|
|-----------------------------------------------------------|
|----------------------6--5----------------------------3----|
|-0--5-3-0-5-3-0-5-3-0-6--5-0--5-3-0-5-3-0-5-3-0-5-3-0-3----|


|------|
|------|
|------|
|------|
|-0----|
|-0----|


Tablature Legend
----------------
 h   - hammer-on
 p   - pull-off
 b   - bend
 pb  - pre-bend
 r   - bend release (if no number after the r, then release immediately)
 /\  - slide into or out of (from/to "nowhere")
 s   - legato slide
 S   - shift slide
  - natural harmonic
[n]  - artificial harmonic
n(n) - tapped harmonic
 ~   - vibrato
 tr  - trill
 T   - tap
 TP  - trem. picking
 PM  - palm muting
\n/  - tremolo bar dip; n = amount to dip
 \n  - tremolo bar down
 n/  - tremolo bar up
/n\  - tremolo bar inverted dip
 =   - hold bend; also acts as connecting device for hammers/pulls
 <>  - volume swell (louder/softer)
 x   - on rhythm slash represents muted slash
 o   - on rhythm slash represents single note slash

Misc Legend
-----------
 |  - bar
||  - double bar
||o - repeat start
o|| - repeat end
*|  - double bar (ending)
 :  - bar (freetime)
 $  - Segno
 &  - Coda
Tempo markers -  = BPM(8/16=s8/s16), where s8 = swing 8ths, s16 = swing 16ths
Добавлено: 28.06.2012
Другие материалы по этой песне:
  • Аккорды и текст

Страница создана 28.04.2012
http://primanota.ru/annihilator/reaction-chords.htm
Привет, Гость.
Предлагаем пройти революционный курс по гитаре.
Подарок от PrimaNota.Ru, забирай!