PrimaNota.ru - самый крупный в мире бесплатный архив песенных текстов, аккордов, табулатур и нот


Annihilator - Sexecution - текст песни, таба, видео

Регистрация Запомнить меня
Войти через:  Facebook Google Twitter Vk Yandex Mail.ru

Annihilator - Sexecution - текст песни, таба, видео

Печатать
Просмотров: 182
Annihilator - Sexecution

tabbed by 
ol753_357lo@yahoo.co.uk

Tuning - Db Ab Db Gb Bb Eb


Both Gtrs
play twice
  PM---------------------|
|-----------------------------|
|-----------------------------|
|-----------------------------|
|-----------------------------|
|-----------------------------|
|-0--0----------------0--0----|


Gtr 1
play 4 times
   PM---|       PM---|       PM---|      PM---------|
|--------------------------------------------------------|
|--------------------------------------------------------|
|--------------------------------------------------------|
|--------------------------------------------------------|
|----------------------11--------------------------------|
|-12-10-0-10---12-10-0------12-10-0-13---0-0-0-0-0--0----|


Gtr 2
play 4 times
  PM------------------------------------------|
|--------------------------------------------------|
|--------------------------------------------------|
|--------------------------------------------------|
|--------------------------------------------------|
|--------------------------------------------------|
|-0--0-0--0--0--0-0--0--0--0-0--0--0-0-0-0-0--0----|


Both Gtrs
  PM-------------------------------------------|
|---------------------------------------------------|
|---------------------------------------------------|
|---------------------------------------------------|
|---------------------------------------------------|
|---------------------------------------------------|
|-0--0--0-0--0--0--0-0--0-0-0--0--0-0--0--0--0-0----|


  PM-----------------------------------|
|--------------------------------------------|
|--------------------------------------------|
|--------------------------------------------|
|--------------------------------------------|
|--------------------------------------------|
|-0--0--0-0--0--0--0-0--0-0-0--0--0-0--0-----|


Verse
Both Gtrs
  PM-------------------------------------------|
|---------------------------------------------------|
|---------------------------------------------------|
|---------------------------------------------------|
|---------------------------------------------------|
|---------------------------------------------------|
|-0--0--0-0--0--0--0-0--0-0-0--0--0-0--0--0--0-0----|


  PM-------------------------------------------|
|-----------------------------------------------------|
|-----------------------------------------------------|
|-----------------------------------------------------|
|-----------------------------------------------------|
|-----------------------------------------------------|
|-0--0--0-0--0--0--0-0--0-0-0--0--0-0--0--0--0-0-6\---|


  PM-------------------------------------------|
|---------------------------------------------------|
|---------------------------------------------------|
|---------------------------------------------------|
|---------------------------------------------------|
|---------------------------------------------------|
|-0--0--0-0--0--0--0-0--0-0-0--0--0-0--0--0--0-0----|


  PM-------------------------------------------|
|---------------------------------------------------|
|---------------------------------------------------|
|---------------------------------------------------|
|---------------------------------------------------|
|---------------------------------------------------|
|-0--0--0-0--0--0--0-0--0-0-0--0--0-0--0--0--0-0----|


Chorus
Gtr 1
play 4 times
   PM---|       PM---|       PM---|      PM---------|
|--------------------------------------------------------|
|--------------------------------------------------------|
|--------------------------------------------------------|
|--------------------------------------------------------|
|----------------------11--------------------------------|
|-12-10-0-10---12-10-0------12-10-0-13---0-0-0-0-0--0----|


Gtr 2
play 4 times
  PM------------------------------------------|
|--------------------------------------------------|
|--------------------------------------------------|
|--------------------------------------------------|
|--------------------------------------------------|
|--------------------------------------------------|
|-0--0-0--0--0--0-0--0--0--0-0--0--0-0-0-0-0--0----|


Verse
Both Gtrs
  PM-------------------------------------------|
|---------------------------------------------------|
|---------------------------------------------------|
|---------------------------------------------------|
|---------------------------------------------------|
|---------------------------------------------------|
|-0--0--0-0--0--0--0-0--0-0-0--0--0-0--0--0--0-0----|


  PM-------------------------------------------|
|-----------------------------------------------------|
|-----------------------------------------------------|
|-----------------------------------------------------|
|-----------------------------------------------------|
|-----------------------------------------------------|
|-0--0--0-0--0--0--0-0--0-0-0--0--0-0--0--0--0-0-6\---|


  PM-------------------------------------------|
|---------------------------------------------------|
|---------------------------------------------------|
|---------------------------------------------------|
|---------------------------------------------------|
|---------------------------------------------------|
|-0--0--0-0--0--0--0-0--0-0-0--0--0-0--0--0--0-0----|


  PM-------------------------------------------|
|-----------------------------------------------------|
|-----------------------------------------------------|
|-----------------------------------------------------|
|-----------------------------------------------------|
|-----------------------------------------------------|
|-0--0--0-0--0--0--0-0--0-0-0--0--0-0--0--0--0-0-6\---|


Both Gtrs
play twice
  PM-------------------------------------------|
|---------------------------------------------------|
|---------------------------------------------------|
|---------------------------------------------------|
|---------------------------------------------------|
|---------------------------------------------------|
|-0--0--0-0--0--0--0-0--0-0-0--0--0-0--0--0--0-0----|


Chorus
Gtr 1
play 7 times
   PM---|       PM---|       PM---|      PM---------|
|--------------------------------------------------------|
|--------------------------------------------------------|
|--------------------------------------------------------|
|--------------------------------------------------------|
|----------------------11--------------------------------|
|-12-10-0-10---12-10-0------12-10-0-13---0-0-0-0-0--0----|

8th time
   PM---|       PM---|       PM---|      PM------|
|------------------------------------------------------|
|------------------------------------------------------|
|------------------------------------------------------|
|------------------------------------------------------|
|----------------------11------------------------------|
|-12-10-0-10---12-10-0------12-10-0-13---0-0-0-0-0-----|


Gtr 2
play 7 times
  PM------------------------------------------|
|--------------------------------------------------|
|--------------------------------------------------|
|--------------------------------------------------|
|--------------------------------------------------|
|--------------------------------------------------|
|-0--0-0--0--0--0-0--0--0--0-0--0--0-0-0-0-0--0----|


8th time
  PM---------------------------------------|
|------------------------------------------------|
|------------------------------------------------|
|------------------------------------------------|
|------------------------------------------------|
|------------------------------------------------|
|-0--0-0--0--0--0-0--0--0--0-0--0--0-0-0-0-0-----|


Both Gtrs
play 4 times
         PM----|        PM           PM----------------|
|-----------------------------------------------------------|
|-----------------------------------------------------------|
|-----------------------------------------------------------|
|-----------------------------------------------------------|
|----5p3------------5p3----------5p3------------------------|
|-0------0-3-0-2-0------0-1---0------0-3-0-2--0--6--1--4----|


Both Gtrs
  PM-------------------------------------------|
|-----------------------------------------------------|
|-----------------------------------------------------|
|-----------------------------------------------------|
|-----------------------------------------------------|
|-------------------------------------------------0---|
|-0--6--1--4--0--6--1--4--0--6--1--4--0--6--1--4--0---|


Both Gtrs
play 3 times, Gtr 3 Lead (to be added)
         PM----|        PM           PM----------------|
|-----------------------------------------------------------|
|-----------------------------------------------------------|
|-----------------------------------------------------------|
|-----------------------------------------------------------|
|----5p3------------5p3----------5p3------------------------|
|-0------0-3-0-2-0------0-1---0------0-3-0-2--0--6--1--4----|


         PM----|        PM           PM---------------------|
|--------------------------------------------------------------|
|--------------------------------------------------------------|
|--------------------------------------------------------------|
|--------------------------------------------------------------|
|----5p3------------5p3----------5p3---------------------------|
|-0------0-3-0-2-0------0-1---0------0-3-0-2--0--6--1--4--0-0--|


Verse
Both Gtrs
  PM-------------------------------------------|
|---------------------------------------------------|
|---------------------------------------------------|
|---------------------------------------------------|
|---------------------------------------------------|
|---------------------------------------------------|
|-0--0--0-0--0--0--0-0--0-0-0--0--0-0--0--0--0-0----|


  PM-------------------------------------------|
|-----------------------------------------------------|
|-----------------------------------------------------|
|-----------------------------------------------------|
|-----------------------------------------------------|
|-----------------------------------------------------|
|-0--0--0-0--0--0--0-0--0-0-0--0--0-0--0--0--0-0-6\---|


  PM-------------------------------------------|
|---------------------------------------------------|
|---------------------------------------------------|
|---------------------------------------------------|
|---------------------------------------------------|
|---------------------------------------------------|
|-0--0--0-0--0--0--0-0--0-0-0--0--0-0--0--0--0-0----|


  PM-------------------------------------------|
|---------------------------------------------------|
|---------------------------------------------------|
|---------------------------------------------------|
|---------------------------------------------------|
|---------------------------------------------------|
|-0--0--0-0--0--0--0-0--0-0-0--0--0-0--0--0--0-/----|


Chorus
Gtr 1
play 8 times
   PM---|       PM---|       PM---|      PM---------|
|--------------------------------------------------------|
|--------------------------------------------------------|
|--------------------------------------------------------|
|--------------------------------------------------------|
|----------------------11--------------------------------|
|-12-10-0-10---12-10-0------12-10-0-13---0-0-0-0-0--0----|


Gtr 2
play 8 times
  PM------------------------------------------|
|--------------------------------------------------|
|--------------------------------------------------|
|--------------------------------------------------|
|--------------------------------------------------|
|--------------------------------------------------|
|-0--0-0--0--0--0-0--0--0--0-0--0--0-0-0-0-0--0----|


Both Gtrs
plays to fade
  PM-|       PM      PM|     PM|        PM      PM      PM|     PM|
|--------------------------------------------------------------------------|
|--------------------------------------------------------------------------|
|--------------------------------------------------------------------------|
|--------------------------------------------------------------------------|
|------------------------------------8-------------------------------------|
|-0--0-10h12-0-10h12-0-0-6h8-0-0-5h6----0-10h12-0-10h12-0-0-6h8-6-0-6--6---|


Tablature Legend
----------------
 h   - hammer-on
 p   - pull-off
 b   - bend
 pb  - pre-bend
 r   - bend release (if no number after the r, then release immediately)
 /\  - slide into or out of (from/to "nowhere")
 s   - legato slide
 S   - shift slide
  - natural harmonic
[n]  - artificial harmonic
n(n) - tapped harmonic
 ~   - vibrato
 tr  - trill
 T   - tap
 TP  - trem. picking
 PM  - palm muting
\n/  - tremolo bar dip; n = amount to dip
 \n  - tremolo bar down
 n/  - tremolo bar up
/n\  - tremolo bar inverted dip
 =   - hold bend; also acts as connecting device for hammers/pulls
 <>  - volume swell (louder/softer)
 x   - on rhythm slash represents muted slash
 o   - on rhythm slash represents single note slash

Misc Legend
-----------
 |  - bar
||  - double bar
||o - repeat start
o|| - repeat end
*|  - double bar (ending)
 :  - bar (freetime)
 $  - Segno
 &  - Coda
Tempo markers -  = BPM(8/16=s8/s16), where s8 = swing 8ths, s16 = swing 16ths


Добавлено: 24.03.2012
Другие материалы по этой песне:
  • Аккорды и текст

Страница создана 15.03.2012
http://primanota.ru/annihilator/sexecution-chords.htm
Привет, Гость.
Предлагаем пройти революционный курс по гитаре.
Подарок от PrimaNota.Ru, забирай!