PrimaNota.ru - самый крупный в мире бесплатный архив песенных текстов, аккордов, табулатур и нот


Annihilator - Nothing Left - текст песни, таба, видео

Регистрация Запомнить меня
Войти через:  Facebook Google Twitter Vk Yandex Mail.ru

Annihilator - Nothing Left - текст песни, таба, видео

Печатать
Просмотров: 134
Авторы музыки: Jeff Waters
Авторы текста: Big John Bates, Jeff Waters
Annihilator - Nothing Left

tabbed by ol753
www.annihilatormetal.com
ol753_357lo@yahoo.co.uk

Tuning - E A D G B E


Gtr 1
play 4 times
  PM------------------------------------|
|--------------------------------------------|
|--------------------------------------------|
|--------------------------------------------|
|--------------------------------------------|
|--------------------------------------------|
|-0-0-0-0--0-0-0-0--0-0--0-0-0-0--0-0-0-0----|


Gtr 2
play 4 times
  PM-------------------------------------------------------------------|
|-------------------------------------------------------------------------|
|-------------------------------------------------------------------------|
|-------------------------------------------------------------------------|
|-------------------------------------------------------------------------|
|-------------------------------------------------------------------------|
|-6-3-0-6-3-0-6-3-0-6-3-0-6-3-0-6-3-0-6-3-0-6-3-0-6-3-0-0-0-0-0--0--0--0--|


Gtr 1
  PM|                 PM|
|--------------------------------|
|--------------------------------|
|--------------------------------|
|-----2-2-----------------3-3----|
|-----2-2-----------------3-3----|
|-0-0-----------------0-0--------|


  PM|                 PM|
|--------------------------------|
|--------------------------------|
|--------------------------------|
|-----2-2-----------------3-3----|
|-----2-2-----------------1-1----|
|-0-0-----------------0-0--------|


  PM|                 PM|
|--------------------------------|
|--------------------------------|
|--------------------------------|
|-----2-2-----------------3-3----|
|-----2-2-----------------3-3----|
|-0-0-----------------0-0--------|


  PM|                 PM|
|--------------------------------|
|--------------------------------|
|--------------------------------|
|-----2-2-----------------5-5----|
|-----2-2-----------------3-3----|
|-0-0-----------------0-0--------|


  PM
|--------------------|
|--------------------|
|--------------------|
|---5-5-5-5-5-5-5----|
|---3-3-3-3-3-3-3----|
|-0------------------|


Gtr 2
play 3 times
      PM    PM    PM    PM    PM    PM    PM    PM    PM---------------|
|------------------------------------------------------------------------|
|------------------------------------------------------------------------|
|------------------------------------------------------------------------|
|------------------------------------------------------------------------|
|-8S5---8S5---8S5---8S5---8S5---8S5---8S5---8S5---8S5--------------------|
|-6S3-0-6S3-0-6S3-0-6S3-0-6S3-0-6S3-0-6S3-0-6S3-0-6S3-0-0-0-0-0--0--0--0-|


4th time
      PM    PM    PM    PM    PM|     PM    PM----|   
|--------------------------------------------------------------------|
|--------------------------------------------------------------------|
|--------------------------------------------------------------------|
|---------------------------------------------------5-5-5-5-5-5-5----|
|-8S5---8S5---8S5---8S5---8S5-----8S5---8S5---------3-3-3-3-3-3-3----|
|-6S3-0-6S3-0-6S3-0-6S3-0-6S3-0-0-6S3-0-6S3-0-0-0-0------------------|


Both Gtrs
play twice
      PM    PM    PM    PM    PM    PM    PM    PM    PM---------------|
|------------------------------------------------------------------------|
|------------------------------------------------------------------------|
|------------------------------------------------------------------------|
|------------------------------------------------------------------------|
|-8S5---8S5---8S5---8S5---8S5---8S5---8S5---8S5---8S5--------------------|
|-6S3-0-6S3-0-6S3-0-6S3-0-6S3-0-6S3-0-6S3-0-6S3-0-6S3-0-0-0-0-0--0--0--0-|


      PM    PM    PM    PM    PM    PM    PM    PM
|---------------------------------------------------------------------|
|---------------------------------------------------------------------|
|---------------------------------------------------------------------|
|---------------------------------------------------------------------|
|-8S5---8S5---8S5---8S5---8S5---8S5---8S5---8S5-----8S10---------7----|
|-6S3-0-6S3-0-6S3-0-6S3-0-6S3-0-6S3-0-6S3-0-6S3-0-6------8-0-5-6------|


Gtr 1
play 4 times, Gtr 2 joins 3rd time
      PM    PM    PM    PM    PM    PM    PM    PM    PM---------------|
|------------------------------------------------------------------------|
|------------------------------------------------------------------------|
|------------------------------------------------------------------------|
|------------------------------------------------------------------------|
|-8S5---8S5---8S5---8S5---8S5---8S5---8S5---8S5---8S5--------------------|
|-6S3-0-6S3-0-6S3-0-6S3-0-6S3-0-6S3-0-6S3-0-6S3-0-6S3-0-0-0-0-0--0--0--0-|


Both Gtrs
      PM    PM    PM    PM    PM    PM    PM    PM    PM---------------|
|------------------------------------------------------------------------|
|------------------------------------------------------------------------|
|------------------------------------------------------------------------|
|------------------------------------------------------------------------|
|-8S5---8S5---8S5---8S5---8S5---8S5---8S5---8S5---8S5--------------------|
|-6S3-0-6S3-0-6S3-0-6S3-0-6S3-0-6S3-0-6S3-0-6S3-0-6S3-0-0-0-0-0--0--0--0-|


      PM    PM    PM    PM    PM    PM    PM    PM
|---------------------------------------------------------------------|
|---------------------------------------------------------------------|
|---------------------------------------------------------------------|
|---------------------------------------------------------------------|
|-8S5---8S5---8S5---8S5---8S5---8S5---8S5---8S5-----8S10---------7----|
|-6S3-0-6S3-0-6S3-0-6S3-0-6S3-0-6S3-0-6S3-0-6S3-0-6------8-0-5-6------|


Verse
Both Gtrs
play twice
      PM    PM    PM    PM    PM    PM    PM    PM    PM---------------|
|------------------------------------------------------------------------|
|------------------------------------------------------------------------|
|------------------------------------------------------------------------|
|------------------------------------------------------------------------|
|-8S5---8S5---8S5---8S5---8S5---8S5---8S5---8S5---8S5--------------------|
|-6S3-0-6S3-0-6S3-0-6S3-0-6S3-0-6S3-0-6S3-0-6S3-0-6S3-0-0-0-0-0--0--0--0-|


      PM    PM    PM    PM    PM    PM    PM    PM
|---------------------------------------------------------------------|
|---------------------------------------------------------------------|
|---------------------------------------------------------------------|
|---------------------------------------------------------------------|
|-8S5---8S5---8S5---8S5---8S5---8S5---8S5---8S5-----8S10---------7----|
|-6S3-0-6S3-0-6S3-0-6S3-0-6S3-0-6S3-0-6S3-0-6S3-0-6------8-0-5-6------|


Chorus
Both Gtrs
play twice
  PM------------------------------------------------------------|
|--------------------------------------------------------------------|
|--------------------------------------------------------------------|
|--------------------------------------------------------------------|
|--------------------------------------------------------------------|
|---------4-4-4-4-3-3-3-3-2-2-2-2---------4-4-4-4-3-3-3-3-0-0-0-0----|
|-2-2-2-2-------------------------2-2-2-2----------------------------|


  PM------------------------------|
|-----------------------------------------------------|
|-----------------------------------------------------|
|-----------------------------------------------------|
|-----------------------------------------------------|
|---------4-4-4-4-3-3-3-3-2-2-2-2-2-----4-------2-----|
|-2-2-2-2---------------------------5-5-5---4-4-4-----|


  PM------------------------------------------------------------|
|--------------------------------------------------------------------|
|--------------------------------------------------------------------|
|--------------------------------------------------------------------|
|--------------------------------------------------------------------|
|---------4-4-4-4-3-3-3-3-2-2-2-2---------4-4-4-4-3-3-3-3-0-0-0-0----|
|-2-2-2-2-------------------------2-2-2-2----------------------------|


      PM    PM        PM    PM
|----------------------------------|
|----------------------------------|
|----------------------------------|
|----------------------------------|
|-6S5---6S5---8-8-6S5---6S5---8----|
|-4S3-0-4S3-0-6-6-4S3-0-4S3-0-6----|


Gtr 1
play twice, Gtr 2 joins 2nd time
      PM    PM    PM    PM    PM    PM    PM    PM    PM---------------|
|------------------------------------------------------------------------|
|------------------------------------------------------------------------|
|------------------------------------------------------------------------|
|------------------------------------------------------------------------|
|-8S5---8S5---8S5---8S5---8S5---8S5---8S5---8S5---8S5--------------------|
|-6S3-0-6S3-0-6S3-0-6S3-0-6S3-0-6S3-0-6S3-0-6S3-0-6S3-0-0-0-0-0--0--0--0-|


Both Gtrs, Gtr 3 Lead (to be added)
      PM    PM    PM    PM    PM    PM    PM    PM    PM---------------|
|------------------------------------------------------------------------|
|------------------------------------------------------------------------|
|------------------------------------------------------------------------|
|------------------------------------------------------------------------|
|-8S5---8S5---8S5---8S5---8S5---8S5---8S5---8S5---8S5--------------------|
|-6S3-0-6S3-0-6S3-0-6S3-0-6S3-0-6S3-0-6S3-0-6S3-0-6S3-0-0-0-0-0--0--0--0-|


      PM    PM    PM    PM    PM    PM    PM    PM
|---------------------------------------------------------------------|
|---------------------------------------------------------------------|
|---------------------------------------------------------------------|
|---------------------------------------------------------------------|
|-8S5---8S5---8S5---8S5---8S5---8S5---8S5---8S5-----8S10---------7----|
|-6S3-0-6S3-0-6S3-0-6S3-0-6S3-0-6S3-0-6S3-0-6S3-0-6------8-0-5-6------|


Verse 2
Both Gtrs
      PM    PM    PM    PM    PM    PM    PM    PM    PM---------------|
|------------------------------------------------------------------------|
|------------------------------------------------------------------------|
|------------------------------------------------------------------------|
|------------------------------------------------------------------------|
|-8S5---8S5---8S5---8S5---8S5---8S5---8S5---8S5---8S5--------------------|
|-6S3-0-6S3-0-6S3-0-6S3-0-6S3-0-6S3-0-6S3-0-6S3-0-6S3-0-0-0-0-0--0--0--0-|


      PM    PM    PM    PM    PM    PM    PM    PM
|---------------------------------------------------------------------|
|---------------------------------------------------------------------|
|---------------------------------------------------------------------|
|---------------------------------------------------------------------|
|-8S5---8S5---8S5---8S5---8S5---8S5---8S5---8S5-----8S10---------7----|
|-6S3-0-6S3-0-6S3-0-6S3-0-6S3-0-6S3-0-6S3-0-6S3-0-6------8-0-5-6------|


Repeat Chorus


Both Gtrs
play 4 times, Gtr 3 Lead (to be added)
      PM    PM        PM    PM
|----------------------------------|
|----------------------------------|
|----------------------------------|
|----------------------------------|
|-6S5---6S5---8-8-6S5---6S5---8----|
|-4S3-0-4S3-0-6-6-4S3-0-4S3-0-6----|


Both Gtrs
play 4 times
      PM    PM        PM    PM
|----------------------------------|
|----------------------------------|
|----------------------------------|
|----------------------------------|
|-6S5---6S5---8-8-6S5---6S5---8----|
|-4S3-0-4S3-0-6-6-4S3-0-4S3-0-6----|


Both Gtrs
play 4 times
  PM-------------------------------------------------------------------|
|-------------------------------------------------------------------------|
|-------------------------------------------------------------------------|
|-------------------------------------------------------------------------|
|-------------------------------------------------------------------------|
|-------------------------------------------------------------------------|
|-6-3-0-6-3-0-6-3-0-6-3-0-6-3-0-6-3-0-6-3-0-6-3-0-6-3-0-0-0-0-0--0--0--0--|


Gtr 3
3rd time
      PM    PM    PM    PM    PM    PM    PM    PM
|--------------------------------------------------------|
|--------------------------------------------------------|
|--------------------------------------------------------|
|-8p5---8p5---8p5---8p5---8p5---8p5---8p5---8p5---8p5----|
|--------------------------------------------------------|
|-----0-----0-----0-----0-----0-----0-----0-----0--------|


        PM      PM      PM      PM      PM      PM      PM      PM
|--------------------------------------------------------------------------|
|--------------------------------------------------------------------------|
|-15p12---15p12---15p12---15p12---15p12---15p12---15p12---15p12---15p12----|
|--------------------------------------------------------------------------|
|--------------------------------------------------------------------------|
|-------0-------0-------0-------0-------0-------0-------0-------0----------|


Both Gtrs
play 4 times
  PM------------------------------------------------------------|
|--------------------------------------------------------------------|
|--------------------------------------------------------------------|
|--------------------------------------------------------------------|
|--------------------------------------------------------------------|
|--------------------------------------------------------------------|
|-6-6-6-6-6-6-6-6-0-0-0-0-0-0-0-0-3-3-3-3-3-3-3-3-7-7-7-7-7-7-7-7----|


  PM------------------------------------------------------------|
|--------------------------------------------------------------------|
|--------------------------------------------------------------------|
|--------------------------------------------------------------------|
|--------------------------------------------------------------------|
|--------------------------------------------------------------------|
|-6-6-6-6-6-6-6-6-0-0-0-0-0-0-0-0-1-1-1-1-1-1-1-1-4-4-4-4-4-4-4-4----|


Both Gtrs
play twice
  PM------------------------------------------------------------|
|--------------------------------------------------------------------|
|--------------------------------------------------------------------|
|--------------------------------------------------------------------|
|--------------------------------------------------------------------|
|---------4-4-4-4-3-3-3-3-2-2-2-2---------4-4-4-4-3-3-3-3-0-0-0-0----|
|-2-2-2-2-------------------------2-2-2-2----------------------------|


  PM------------------------------|
|-----------------------------------------------------|
|-----------------------------------------------------|
|-----------------------------------------------------|
|-----------------------------------------------------|
|---------4-4-4-4-3-3-3-3-2-2-2-2-2-----4-------2-----|
|-2-2-2-2---------------------------5-5-5---4-4-4-----|


  PM------------------------------------------------------------|
|--------------------------------------------------------------------|
|--------------------------------------------------------------------|
|--------------------------------------------------------------------|
|--------------------------------------------------------------------|
|---------4-4-4-4-3-3-3-3-2-2-2-2---------4-4-4-4-3-3-3-3-0-0-0-0----|
|-2-2-2-2-------------------------2-2-2-2----------------------------|


      PM    PM        PM    PM
|----------------------------------|
|----------------------------------|
|----------------------------------|
|----------------------------------|
|-6S5---6S5---8-8-6S5---6S5---8----|
|-4S3-0-4S3-0-6-6-4S3-0-4S3-0-6----|


Gtr 3
play twice
|------------------------------------------------------------------|
|-----------------------------------------------------5-4----------|
|-------6--6-----------4---------------6--6---------------6-4------|
|-4-6-7------7-6-4-6-7---7-6-4---4-6-7------7-6-4-6-7---------7----|
|------------------------------7-----------------------------------|
|------------------------------------------------------------------|


|------------------------------------3-3-----3-3-6---------3-3-----3-3-6-------|
|--------------------------------6b8-----6b8-----9b11--6b8-----6b8-----9b11----|
|-------6--6-----------4-------------------------------------------------------|
|-4-6-7------7-6-4-6-7---7-6-4-------------------------------------------------|
|------------------------------7-----------------------------------------------|
|------------------------------------------------------------------------------|


Gtr 4
joins 2nd time
|----------------------------------------------------------------------|
|--------------------------------------------------------9-7-----------|
|--------9--9--------7------------------9--9-----------------9-8-------|
|-7-9-11------11-9-7---11-9-7----7-9-11------11-9-7-9-11---------11----|
|-----------------------------11---------------------------------------|
|----------------------------------------------------------------------|


|------------------------------------------6-6------6-6--9----------6-6------6-6--9-------|
|-------------------------------------9b11-----9b11-----12b14--9b11-----9b11-----12b14----|
|--------9--9-------------7---------------------------------------------------------------|
|-7-9-11------11-9-7-9-11---11-9-7--------------------------------------------------------|
|----------------------------------11-----------------------------------------------------|
|-----------------------------------------------------------------------------------------|


Gtr 3
|--9-------|
|-12b14----|
|----------|
|----------|
|----------|
|----------|


Gtr 4
|-12-------|
|-15b17----|
|----------|
|----------|
|----------|
|----------|


Gtr 1
play twice, Gtr 2 joins 2nd time
      PM    PM    PM    PM    PM    PM    PM    PM    PM---------------|
|------------------------------------------------------------------------|
|------------------------------------------------------------------------|
|------------------------------------------------------------------------|
|------------------------------------------------------------------------|
|-8S5---8S5---8S5---8S5---8S5---8S5---8S5---8S5---8S5--------------------|
|-6S3-0-6S3-0-6S3-0-6S3-0-6S3-0-6S3-0-6S3-0-6S3-0-6S3-0-0-0-0-0--0--0--0-|


Repeat Verse 2
Play Chorus twice
(Gtr 3 plays same riff an octave higher)


Both Gtrs
play twice
      PM    PM        PM    PM
|----------------------------------|
|----------------------------------|
|----------------------------------|
|----------------------------------|
|-6S5---6S5---8-8-6S5---6S5---8----|
|-4S3-0-4S3-0-6-6-4S3-0-4S3-0-6----|


Both Gtrs
|------|
|------|
|------|
|--6\--|
|--4\--|
|------|


Tablature Legend
----------------
 h   - hammer-on
 p   - pull-off
 b   - bend
 pb  - pre-bend
 r   - bend release (if no number after the r, then release immediately)
 /\  - slide into or out of (from/to "nowhere")
 s   - legato slide
 S   - shift slide
  - natural harmonic
[n]  - artificial harmonic
n(n) - tapped harmonic
 ~   - vibrato
 tr  - trill
 T   - tap
 TP  - trem. picking
 PM  - palm muting
\n/  - tremolo bar dip; n = amount to dip
 \n  - tremolo bar down
 n/  - tremolo bar up
/n\  - tremolo bar inverted dip
 =   - hold bend; also acts as connecting device for hammers/pulls
 <>  - volume swell (louder/softer)
 x   - on rhythm slash represents muted slash
 o   - on rhythm slash represents single note slash

Misc Legend
-----------
 |  - bar
||  - double bar
||o - repeat start
o|| - repeat end
*|  - double bar (ending)
 :  - bar (freetime)
 $  - Segno
 &  - Coda
Tempo markers -  = BPM(8/16=s8/s16), where s8 = swing 8ths, s16 = swing 16ths
Добавлено: 12.04.2012
Другие материалы по этой песне:
  • Аккорды и текст

Страница создана 13.03.2012
http://primanota.ru/annihilator/nothing-left-chords.htm
Привет, Гость.
Предлагаем пройти революционный курс по гитаре.
Подарок от PrimaNota.Ru, забирай!