PrimaNota.ru - самый крупный в мире бесплатный архив песенных текстов, аккордов, табулатур и нот


Annihilator - Never - текст песни, таба, видео

Регистрация Запомнить меня
Войти через:  Facebook Google Twitter Vk Yandex Mail.ru

Annihilator - Never - текст песни, таба, видео

Печатать
Просмотров: 138
Авторы музыки: Jeff Waters, Mike Leakey
Авторы текста: Jeff Waters
Annihilator - Never

tabbed by ol753
www.annihilatormetal.com
ol753_357lo@yahoo.co.uk

Tuning - D A D G B E


Gtr 1
play 8 times
  PM---------------------|
|-----------------------------|
|-----------------------------|
|-----------------------------|
|-----------------------------|
|-----------------------------|
|-0-0--0-0--0--0-0--0-0--0----|


Gtr 2
play twice
  PM---|
|------------------------------|
|--------3----------9-9-9-9\---|
|--------1----------7-7-7-7\---|
|--------0----------0-0-0-0----|
|------------------------------|
|-0-0--0-----------------------|


  PM---|
|---------------------------------------|
|--------3----------9-9-9-9\------------|
|--------1----------7-7-7-7\----*-------| * pick scrapes
|--------0----------0-0-0-0-------------|
|---------------------------------------|
|-0-0--0--------------------------------|


Both Gtrs
play twice
  PM---------------------------------------|    PM|
|--------------------------------------------------------|
|--------------------------------------------------------|
|--------------------------------------------------------|
|--------------------------------------------------------|
|--------------------------------------------6------6----|
|-0-0--0-0--0--0-0--0-0--0--0-0--0-0--0--0-0-6--0-0-6----|

  PM---------------------------------------|     PM--|
|---------------------------------------------------------|
|---------------------------------------------------------|
|---------------------------------------------------------|
|---------------------------------------------------------|
|--------------------------------------------6\-----------|
|-0-0--0-0--0--0-0--0-0--0--0-0--0-0--0--0-0-6\--0-0-0----|


Gtr 1
play 8 times
  PM---------------------|
|-----------------------------|
|-----------------------------|
|-----------------------------|
|-----------------------------|
|-----------------------------|
|-0-0--0-0--0--0-0--0-0--0----|


Gtr 2
play twice
  PM---|
|------------------------------|
|--------3----------9-9-9-9\---|
|--------1----------7-7-7-7\---|
|--------0----------0-0-0-0----|
|------------------------------|
|-0-0--0-----------------------|


  PM---|
|---------------------------------------|
|--------3----------9-9-9-9\------------|
|--------1----------7-7-7-7\----*-------| * pick scrapes
|--------0----------0-0-0-0-------------|
|---------------------------------------|
|-0-0--0--------------------------------|


Both Gtrs
play twice
  PM---------------------------------------|    PM|
|--------------------------------------------------------|
|--------------------------------------------------------|
|--------------------------------------------------------|
|--------------------------------------------------------|
|--------------------------------------------6------6----|
|-0-0--0-0--0--0-0--0-0--0--0-0--0-0--0--0-0-6--0-0-6----|

  PM---------------------------------------|     PM--|
|---------------------------------------------------------|
|---------------------------------------------------------|
|---------------------------------------------------------|
|---------------------------------------------------------|
|--------------------------------------------6\-----------|
|-0-0--0-0--0--0-0--0-0--0--0-0--0-0--0--0-0-6\--0-0-0----|


Gtr 1
play 8 times
  PM---------------------|
|-----------------------------|
|-----------------------------|
|-----------------------------|
|-----------------------------|
|-----------------------------|
|-0-0--0-0--0--0-0--0-0--0----|


Gtr 2
play twice
  PM---|
|------------------------------|
|--------3----------9-9-9-9\---|
|--------1----------7-7-7-7\---|
|--------0----------0-0-0-0----|
|------------------------------|
|-0-0--0-----------------------|


  PM---|
|---------------------------------------|
|--------3----------9-9-9-9\------------|
|--------1----------7-7-7-7\----*-------| * pick scrapes
|--------0----------0-0-0-0-------------|
|---------------------------------------|
|-0-0--0--------------------------------|


Both Gtrs
play twice
  PM---------------------------------------|    PM|
|--------------------------------------------------------|
|--------------------------------------------------------|
|--------------------------------------------------------|
|--------------------------------------------------------|
|--------------------------------------------6------6----|
|-0-0--0-0--0--0-0--0-0--0--0-0--0-0--0--0-0-6--0-0-6----|

  PM---------------------------------------|     PM--|
|---------------------------------------------------------|
|---------------------------------------------------------|
|---------------------------------------------------------|
|---------------------------------------------------------|
|--------------------------------------------6\-----------|
|-0-0--0-0--0--0-0--0-0--0--0-0--0-0--0--0-0-6\--0-0-0----|


Gtr 1
  PM------|           PM--|           PM--|       PM|   PM----|
|--------------------------------------------------------------------|
|--------------------------------------------------------------------|
|--------------------------------------------------------------------|
|--------------------------------------------------------------------|
|-----------6p3---1p0-------6p3---2p0-------6p3-------5---------4----|
|-0-0-0-0-0-6p3-0-1p0-0-0-0-6p3-0-2p0-0-0-0-6p3-0-3-4---4-3-0-3------|


  PM------|           PM--|           PM--|       PM----------------------------|
|------------------------------------------------------------------------------------|
|------------------------------------------------------------------------------------|
|------------------------------------------------------------------------------------|
|------------------------------------------------------------------------------------|
|-----------6p3---1p0-------6p3---2p0-------6p3--------------------------------------|
|-0-0-0-0-0-6p3-0-1p0-0-0-0-6p3-0-2p0-0-0-0-6p3-0-3-3-3-3-3-3-3-3-1-1-1-1-1-1-1-1----|


Both Gtrs
play 3 times
  PM------|           PM--|           PM--|       PM|   PM----|
|--------------------------------------------------------------------|
|--------------------------------------------------------------------|
|--------------------------------------------------------------------|
|--------------------------------------------------------------------|
|-----------6p3---1p0-------6p3---2p0-------6p3-------5---------4----|
|-0-0-0-0-0-6p3-0-1p0-0-0-0-6p3-0-2p0-0-0-0-6p3-0-3-4---4-3-0-3------|


  PM------|           PM--|           PM--|       PM----|   PM----|
|----------------------------------------------------------------------|
|----------------------------------------------------------------------|
|----------------------------------------------------------------------|
|----------------------------------------------------------------------|
|-----------6p3---1p0-------6p3---2p0-------6p3------------------------|
|-0-0-0-0-0-6p3-0-1p0-0-0-0-6p3-0-2p0-0-0-0-6p3-0-3-3-3-3---1-1-1-1----|


Gtr 2
play twice, Gtr 3 (to be added)
|-----------------------------------------------------------------------|
|-----------------------------------------------------------------------|
|---------/7--6--------------------/7-----------------------------------|
|----------------------6--7-----------------6------8-10-------12--------|
|-5----------------------------5----------7------9------11-------13-----|
|---------------------------------------8-----10-----------12-------14--|


Both Gtrs
  PM----------------------|
|---------------------------------------|
|---------------------------------------|
|----------------------------------6----|
|-------------------------------6-------|
|----------------------------4----------|
|-0-2-3-6-5-0-3-4-0-2-3-6-5-------------|


  PM----------------------|
|---------------------------------------------------------|
|---------------------------------------------------------|
|---------------------------------------------------------|
|-----------------------------6------8-10-------12--------|
|---------------------------7------9------11-------13-----|
|-0-2-3-6-5-0-3-4-0-2-3-6-8-----10-----------12-------14--|


Gtr 1
play twice
  PM              PM               PM
|-------------------------------------------------------------------------------|
|-------------------------------------------------------------------------------|
|-------------------------------------------------------------------------------|
|----------------------------6--6-----------------------3-----5-7-----9---------|
|-0-2-3-6-5-0-3-4-0-2-3-6-5--4--4--0-2-3-6-5-0-3-4----4-----6-----8-----10------|
|-0-2-3-6-5-0-3-4-0-2-3-6-5--------0-2-3-6-5-0-3-4--5-----7---------9------11---|


Gtr 2
play twice
  PM              PM               PM
|----------------------------------------------------------------------------------|
|----------------------------------------------------------------------------------|
|----------------------------------------------------------------------------------|
|----------------------------6--6-----------------------6------8-10-------12-------|
|-0-2-3-6-5-0-3-4-0-2-3-6-5--4--4--0-2-3-6-5-0-3-4----7------9------11-------13----|
|-0-2-3-6-5-0-3-4-0-2-3-6-5--------0-2-3-6-5-0-3-4--8-----10-----------12-------14-|


Gtr 1
play 4 times
|-------------------------------------------------------------|
|-------------------------------------------------------------|
|-------------------------------------------------------------|
|-------------------------------------------------------------|
|-0-4-3-2-1-0-5-4-3-2-0-6-5-4-3--0-4-3-2-1-0-5-4-3-2-0-6-5----|
|-0-4-3-2-1-0-5-4-3-2-0-6-5-4-3--0-4-3-2-1-0-5-4-3-2-0-6-5----|

                                                      PM----|
|----------------------------------------------------------------|
|----------------------------------------------------------------|
|----------------------------------------------------------------|
|------------------------------------8S10---------7--------------|
|-0-4-3-2-1-0-5-4-3-2-0-6-5-4-3--0-6------8-0-5-6----------------|
|-0-4-3-2-1-0-5-4-3-2-0-6-5-4-3-----------------------6-6-6-3----|


Gtr 2
play 4 times
|-------------------------------------------------------------|
|-------------------------------------------------------------|
|-------------------------------------------------------------|
|-------------------------------------------------------------|
|-0-4-3-2-1-0-5-4-3-2-0-6-5-4-3--0-4-3-2-1-0-5-4-3-2-0-6-5----|
|-0-4-3-2-1-0-5-4-3-2-0-6-5-4-3--0-4-3-2-1-0-5-4-3-2-0-6-5----|

                                                         PM----|
|-------------------------------------------------------------------|
|-------------------------------------------------------------------|
|-------------------------------------------------------------------|
|------------------------------------11S13----------10--------------|
|-0-4-3-2-1-0-5-4-3-2-0-6-5-4-3--0-9-------11-0-8-9-----------------|
|-0-4-3-2-1-0-5-4-3-2-0-6-5-4-3--------------------------6-6-6-3----|


Gtr 3
2nd time
|-------------------------------------------------------------|
|-------------------------------------------------------------|
|-------------------------------------------------------------|
|-0-4-3-2-1-0-5-4-3-2-0-6-5-4-3--0-4-3-2-1-0-5-4-3-2-0-6-5----|
|-------------------------------------------------------------|
|-------------------------------------------------------------|


|----------------------------------|
|----------------------------------|
|----------------------------------|
|-0-4-3-2-1-0-5-4-3-2-0-6-5-4-3----|
|----------------------------------|
|----------------------------------|


Gtr 3
play twice
|-------------------------------------------------------------|
|-------------------------------------------------------------|
|-------------------------------------------------------------|
|-0-7-6-5-4-0-8-7-6-5-0-9-8-7-6--0-7-6-5-4-0-8-7-6-5-0-9-8----|
|-------------------------------------------------------------|
|-------------------------------------------------------------|

|--------------------------------|
|--------------------------------|
|--------------------------------|
|-0-7-6-5-4-0-8-7-6-5-0-9-8-7-6--|
|--------------------------------|
|--------------------------------|


Both Gtrs
play twice, Gtr 3 Lead (to be added)
  PM---------------------------------------|    PM|
|--------------------------------------------------------|
|--------------------------------------------------------|
|--------------------------------------------------------|
|--------------------------------------------------------|
|--------------------------------------------6------6----|
|-0-0--0-0--0--0-0--0-0--0--0-0--0-0--0--0-0-6--0-0-6----|

  PM---------------------------------------|     PM--|
|---------------------------------------------------------|
|---------------------------------------------------------|
|---------------------------------------------------------|
|---------------------------------------------------------|
|--------------------------------------------6\-----------|
|-0-0--0-0--0--0-0--0-0--0--0-0--0-0--0--0-0-6\--0-0-0----|


Both Gtrs
  PM---------------------------------------|    PM|
|--------------------------------------------------------|
|--------------------------------------------------------|
|--------------------------------------------------------|
|--------------------------------------------3------3----|
|--------------------------------------------1------1----|
|-0-2--2-2--2--0-2--2-2--2--0-2--2-2--2--2-2----2-2------|


  PM---------------------------------------|
|----------------------------------------------------------|
|----------------------------------------------------------|
|----------------------------------------------------------|
|--------------------------------------------3-------------|
|--------------------------------------------1-------------|
|-0-2--2-2--2--0-2--2-2--2--0-2--2-2--2--2-2----4-3-2-1----|


Both Gtrs
  PM---------------------------------------|    PM|
|--------------------------------------------------------|
|--------------------------------------------------------|
|--------------------------------------------------------|
|--------------------------------------------------------|
|--------------------------------------------6------6----|
|-0-0--0-0--0--0-0--0-0--0--0-0--0-0--0--0-0-6--0-0-6----|

  PM-----------------------------------------|
|-------------------------------------------------|
|-------------------------------------------------|
|-------------------------------------------------|
|-------------------------------------------------|
|-------------------------------------------------|
|-0-0--0-0--0--0-0--0-0--0--0-0--0-0--0--0-0-0----|


Both Gtrs
plays to fade
  PM---------------------------------------|    PM|
|--------------------------------------------------------|
|--------------------------------------------------------|
|--------------------------------------------------------|
|--------------------------------------------------------|
|--------------------------------------------6------6----|
|-0-0--0-0--0--0-0--0-0--0--0-0--0-0--0--0-0-6--0-0-6----|

  PM---------------------------------------|     PM--|
|---------------------------------------------------------|
|---------------------------------------------------------|
|---------------------------------------------------------|
|---------------------------------------------------------|
|--------------------------------------------6\-----------|
|-0-0--0-0--0--0-0--0-0--0--0-0--0-0--0--0-0-6\--0-0-0----|


Tablature Legend
----------------
 h   - hammer-on
 p   - pull-off
 b   - bend
 pb  - pre-bend
 r   - bend release (if no number after the r, then release immediately)
 /\  - slide into or out of (from/to "nowhere")
 s   - legato slide
 S   - shift slide
  - natural harmonic
[n]  - artificial harmonic
n(n) - tapped harmonic
 ~   - vibrato
 tr  - trill
 T   - tap
 TP  - trem. picking
 PM  - palm muting
\n/  - tremolo bar dip; n = amount to dip
 \n  - tremolo bar down
 n/  - tremolo bar up
/n\  - tremolo bar inverted dip
 =   - hold bend; also acts as connecting device for hammers/pulls
 <>  - volume swell (louder/softer)
 x   - on rhythm slash represents muted slash
 o   - on rhythm slash represents single note slash

Misc Legend
-----------
 |  - bar
||  - double bar
||o - repeat start
o|| - repeat end
*|  - double bar (ending)
 :  - bar (freetime)
 $  - Segno
 &  - Coda
Tempo markers -  = BPM(8/16=s8/s16), where s8 = swing 8ths, s16 = swing 16ths
Добавлено: 30.04.2012
Другие материалы по этой песне:
  • Аккорды и текст

Страница создана 30.04.2012
http://primanota.ru/annihilator/never-chords.htm
Привет, Гость.
Предлагаем пройти революционный курс по гитаре.
Подарок от PrimaNota.Ru, забирай!