PrimaNota.ru - самый крупный в мире бесплатный архив песенных текстов, аккордов, табулатур и нот


Annihilator - No Love - текст песни, таба, видео

Регистрация Запомнить меня
Войти через:  Facebook Google Twitter Vk Yandex Mail.ru

Annihilator - No Love - текст песни, таба, видео

Печатать
Просмотров: 136
Авторы музыки: Jeff Waters
Авторы текста: Big John Bates
Annihilator - No Love

tabbed by ol753
www.annihilatormetal.com
ol753_357lo@yahoo.co.uk

Tuning - E A D G B E


Both Gtrs
play 3 times
       PM-----------------|     PM-----------------|
|-------------------------------------------------------|
|-------------------------------------------------------|
|-<5>-----------------------<5>-------------------------|
|-------------------------------------------------------|
|-------------------------------------------------------|
|------0-2-0--0-2-2-2-0-2-0-----0-2-0--0-2-2-2-0-2-0----|


4th time
       PM-----------------|     PM---------------|
|-----------------------------------------------------|
|-----------------------------------------------------|
|-<5>-----------------------<5>-----------------------|
|-----------------------------------------------------|
|-----------------------------------------------------|
|------0-2-0--0-2-2-2-0-2-0-----0-2-0--0-2-2-2-0-2----|


Verse
Both Gtrs
play 2 times
  PM---------------------------|
|----------------------------------------|
|----------------------------------------|
|----------------------------------------|
|-----------------------------------5----|
|-------4------------4-----------5--3----|
|-2-2-0-2------2-2-0-2---2-2-0-2-3-------|


3rd time
  PM---------------------------|
|-------------------------------------------|
|-------------------------------------------|
|-------------------------------------------|
|-----------------------------------5-------|
|-------4------------4-----------5--3--4\---|
|-2-2-0-2------2-2-0-2---2-2-0-2-3-----2\---|


Chorus
Both Gtrs
play 3 times
       PM-----------------|     PM-----------------|
|-------------------------------------------------------|
|-------------------------------------------------------|
|-<5>-----------------------<5>-------------------------|
|-------------------------------------------------------|
|-------------------------------------------------------|
|------0-2-0--0-2-2-2-0-2-0-----0-2-0--0-2-2-2-0-2-0----|


4th time
       PM-----------------|     PM---------------|
|-----------------------------------------------------|
|-----------------------------------------------------|
|-<5>-----------------------<5>-----------------------|
|-----------------------------------------------------|
|-----------------------------------------------------|
|------0-2-0--0-2-2-2-0-2-0-----0-2-0--0-2-2-2-0-2----|


Repeat Verse
Repeat Chorus


Both Gtrs
play 7 times
       PM-----------------|     PM-----------------|
|-------------------------------------------------------|
|-------------------------------------------------------|
|-<5>-----------------------<5>-------------------------|
|-------------------------------------------------------|
|-------------------------------------------------------|
|------0-2-0--0-2-2-2-0-2-0-----0-2-0--0-2-2-2-0-2-0----|


8th time
       PM-----------------|     PM---------------|
|-----------------------------------------------------|
|-----------------------------------------------------|
|-<5>-----------------------<5>-----------------------|
|-----------------------------------------------------|
|-----------------------------------------------------|
|------0-2-0--0-2-2-2-0-2-0-----0-2-0--0-2-2-2-0-2----|


Gtr 3
|-------14-------12-------------14-------14b15----|
|-------------------------------------------------|
|-11-12----11-12----------11-12----11-12----------|
|-------------------------------------------------|
|-------------------------------------------------|
|-------------------------------------------------|


|-------14-------12-------------14-------------|
|----------------------------------------14----|
|-11-12----11-12----------11-12----11-12-------|
|----------------------------------------------|
|----------------------------------------------|
|----------------------------------------------|


|-------14-------12-------------14-------14b15----|
|-------------------------------------------------|
|-11-12----11-12----------11-12----11-12----------|
|-------------------------------------------------|
|-------------------------------------------------|
|-------------------------------------------------|


|-------14-------12-------------14---------------------------|
|----------------------------------------14b15--14b15r=14----|
|-11-12----11-12----------11-12----11-12---------------------|
|------------------------------------------------------------|
|------------------------------------------------------------|
|------------------------------------------------------------|


Verse
Both Gtrs
play twice
  PM---------------------------|
|----------------------------------------|
|----------------------------------------|
|----------------------------------------|
|-----------------------------------5----|
|-------4------------4-----------5--3----|
|-2-2-0-2------2-2-0-2---2-2-0-2-3-------|


Chorus
Both Gtrs
play 8 times
       PM-----------------|     PM-----------------|
|-------------------------------------------------------|
|-------------------------------------------------------|
|-<5>-----------------------<5>-------------------------|
|-------------------------------------------------------|
|-------------------------------------------------------|
|------0-2-0--0-2-2-2-0-2-0-----0-2-0--0-2-2-2-0-2-0----|


Both Gtrs
play 4 times
       PM-----------------|     PM-----------------|
|-------------------------------------------------------|
|-------------------------------------------------------|
|-<5>-----------------------<5>-------------------------|
|-------------------------------------------------------|
|-------------------------------------------------------|
|------0-2-0--0-2-2-2-0-2-0-----0-2-0--0-2-2-2-0-2-0----|

Gtr 3
play 8 times
  PM----------------------|
|------------------------------|
|------------------------------|
|------------------------------|
|------------------------------|
|------------------------------|
|-2--2--2-2--2-2--2--2-2--2----|


Both Gtrs
plays to fade
       PM-----------------|     PM-----------------|
|-------------------------------------------------------|
|-------------------------------------------------------|
|-<5>-----------------------<5>-------------------------|
|-------------------------------------------------------|
|-------------------------------------------------------|
|------0-2-0--0-2-2-2-0-2-0-----0-2-0--0-2-2-2-0-2-0----|


Tablature Legend
----------------
 h   - hammer-on
 p   - pull-off
 b   - bend
 pb  - pre-bend
 r   - bend release (if no number after the r, then release immediately)
 /\  - slide into or out of (from/to "nowhere")
 s   - legato slide
 S   - shift slide
  - natural harmonic
[n]  - artificial harmonic
n(n) - tapped harmonic
 ~   - vibrato
 tr  - trill
 T   - tap
 TP  - trem. picking
 PM  - palm muting
\n/  - tremolo bar dip; n = amount to dip
 \n  - tremolo bar down
 n/  - tremolo bar up
/n\  - tremolo bar inverted dip
 =   - hold bend; also acts as connecting device for hammers/pulls
 <>  - volume swell (louder/softer)
 x   - on rhythm slash represents muted slash
 o   - on rhythm slash represents single note slash

Misc Legend
-----------
 |  - bar
||  - double bar
||o - repeat start
o|| - repeat end
*|  - double bar (ending)
 :  - bar (freetime)
 $  - Segno
 &  - Coda
Tempo markers -  = BPM(8/16=s8/s16), where s8 = swing 8ths, s16 = swing 16ths
Добавлено: 27.02.2012
Другие материалы по этой песне:
  • Аккорды и текст

Страница создана 27.02.2012
http://primanota.ru/annihilator/no-love-chords.htm
Привет, Гость.
Предлагаем пройти революционный курс по гитаре.
Подарок от PrimaNota.Ru, забирай!