PrimaNota.ru - самый крупный в мире бесплатный архив песенных текстов, аккордов, табулатур и нот


Annihilator - Loving The Sinner - текст песни, таба, видео

Регистрация Запомнить меня
Войти через:  Facebook Google Twitter Vk Yandex Mail.ru

Annihilator - Loving The Sinner - текст песни, таба, видео

Печатать
Просмотров: 137
Авторы музыки: Jeff Waters
Авторы текста: Jeff Waters
Annihilator - Loving The Sinner

tabbed by 
ol753_357lo@yahoo.co.uk

Tuning - D A D G B E


Both Gtrs
play 4 times
  PM----------------------------------------------|
|------------------------------------------------------------------|
|------------------------------------------------------------------|
|------------------------------------------------------------------|
|------------------------------------------------------------------|
|---------------------------------------------------8-5-0-6-3-0----|
|-0-0-0-0-0-0-0-0-0-0-0-0-0-0-0-0-0-0-0-0-0-0-0-0-0-8-5-0-6-3-0----|


Gtr 3
play 4 times
        PM-----|      PM----|     PM----|     PM----|
|--------------------------------------------------------|
|--------------------------------------------------------|
|-10h12-9-10-7-9-9h10-7-9-5-7-7h9-5-7-3-5-5h7-3-5-2-3-*--|
|--------------------------------------------------------| *harmonics slide
|--------------------------------------------------------|
|--------------------------------------------------------|


Gtr 4
play 4 times
         PM------|         PM-----|        PM-----|      PM----|
|-------------------------------------------------------------------|
|-------------------------------------------------------------------|
|-14h15-12-14-10-12-12h14-10-12-9-10-10h12-9-10-7-9-9h10-7-9-5-7-*--|
|-------------------------------------------------------------------| * harmonics slide
|-------------------------------------------------------------------|
|-------------------------------------------------------------------|


Gtr 3
|----------|
|-13b15----|
|----------|
|----------|
|----------|
|----------|


Gtr 4
|----------|
|-17b18----|
|----------|
|----------|
|----------|
|----------|


Verse
Both Gtrs
play 4 times
    PM    PM    PM  PM    PM    PM  PM    PM    PM  PM
|--------------------------------------------------------------------|
|--------------------------------------------------------------------|
|--------------------------------------------------------------------|
|--------------------------------------------------------------------|
|-5---3-5---3-5---5---3-5---6-3---5---3-5---3-5---5---8-5-0-6-3------|
|-0-0-0-0-0-0-0-0-0-0-0-0-0-0-0-0-0-0-0-0-0-0-0-0-0-0-8-5-0-6-3-0----|


Both Gtrs
|---------------------------|
|---------------------------|
|---------------------------|
|---------------------------|
|-4--------7S6-0-------2----|
|-4--------7S6-0-------2----|


|----------------------------------------|
|----------------------------------------|
|----------------------------------------|
|----------------------------------------|
|-4--------7S6-0-------2------2-2-7-6----|
|-4--------7S6-0-------2------2-2-7-6----|


Gtr 3
play twice
|-------0----------------------0-------------0---------|
|-----0----0-----------------0----0--------0----0------|
|---2--------2-------------2--------2----1--------1----|
|-4----------------------0-------------2---------------|
|------------------------------------------------------|
|------------------------------------------------------|


Gtr 4
|-----------------------------------------------------------|
|-------------------7--7h8--7-------------------------------|
|-9h11--------9h11-------------11S13S=11-----9h11--9--------|
|-----------------------------------------------------11--9-|
|-----------------------------------------------------------|
|-----------------------------------------------------------|


|----------|
|----------|
|----------|
|----------|
|-11S12----|
|----------|


Gtr 5
|------------------------------------------------------------------|
|---------------------12--12h14--12--------------------------------|
|-13h14--------13h14-----------------14S16S=14-----13h14-----------|
|---------------------------------------------------------14--12---|
|------------------------------------------------------------------|
|------------------------------------------------------------------|


|----------|
|----------|
|----------|
|----------|
|-14S16----|
|----------|


Both Gtrs
|---------------------------------------------------------|
|---------------------------------------------------------|
|---------------------------------------------------------|
|---------------------------------------------------------|
|-2h4--4-4--4--2h4--4-4--7S6--0-0--0-0--0--2-2--2-2--2----|
|-2h4--4-4--4--2h4--4-4--7S6--0-0--0-0--0--2-2--2-2--2----|


|----------------------------------------------------------|
|----------------------------------------------------------|
|----------------------------------------------------------|
|----------------------------------------------------------|
|-2h4--4-4--4--2h4--4-4--7S6--0-0--0-0--0--2-2--2-2-2-2----|
|-2h4--4-4--4--2h4--4-4--7S6--0-0--0-0--0--2-2--2-2-2-2----|


Gtr 3
play twice
|-------0-------------0-------------0-------------0---------|
|-----0----0--------0----0--------0----0--------0----0------|
|---2--------2----2--------2----2--------2----1--------1----|
|-4-------------4-------------0-------------2---------------|
|-----------------------------------------------------------|
|-----------------------------------------------------------|


Both Gtrs
play twice
    PM|   PM    PM--|               PM|   PM    PM--|
|--------------------------------------------------------------------|
|--------------------------------------------------------------------|
|--------------------------------------------------------------------|
|-6-----6---6---------------------6-----6---6------------------------|
|-5-----5---5---------8-5-0-6-3-0-5-----5---5---------8-5-0-6-3-0----|
|---0-0---0---0-0-0-0-8-5-0-6-3-0---0-0---0---0-0-0-0-8-5-0-6-3-0----|


Both Gtrs
play twice
  PM----------------------------------------------|
|------------------------------------------------------------------|
|------------------------------------------------------------------|
|------------------------------------------------------------------|
|------------------------------------------------------------------|
|---------------------------------------------------8-5-0-6-3-0----|
|-0-0-0-0-0-0-0-0-0-0-0-0-0-0-0-0-0-0-0-0-0-0-0-0-0-8-5-0-6-3-0----|


Gtr 3
play twice
        PM-----|      PM----|     PM----|     PM----|
|--------------------------------------------------------|
|--------------------------------------------------------|
|-10h12-9-10-7-9-9h10-7-9-5-7-7h9-5-7-3-5-5h7-3-5-2-3-*--|
|--------------------------------------------------------| *harmonics slide
|--------------------------------------------------------|
|--------------------------------------------------------|


Gtr 2
play twice
         PM------|         PM-----|        PM-----|      PM----|
|-------------------------------------------------------------------|
|-------------------------------------------------------------------|
|-14h15-12-14-10-12-12h14-10-12-9-10-10h12-9-10-7-9-9h10-7-9-5-7-*--|
|-------------------------------------------------------------------| * harmonics slide
|-------------------------------------------------------------------|
|-------------------------------------------------------------------|


Gtr 3
|----------|
|-13b15----|
|----------|
|----------|
|----------|
|----------|


Gtr 4
|----------|
|-17b18----|
|----------|
|----------|
|----------|
|----------|


Repeat Verse


Both Gtrs
|---------------------------|
|---------------------------|
|---------------------------|
|---------------------------|
|-4--------7S6-0-------2----|
|-4--------7S6-0-------2----|


|----------------------------------------|
|----------------------------------------|
|----------------------------------------|
|----------------------------------------|
|-4--------7S6-0-------2------2-2-7-6----|
|-4--------7S6-0-------2------2-2-7-6----|


Gtr 3
play twice
|-------0----------------------0-------------0---------|
|-----0----0-----------------0----0--------0----0------|
|---2--------2-------------2--------2----1--------1----|
|-4----------------------0-------------2---------------|
|------------------------------------------------------|
|------------------------------------------------------|


Gtr 4
|-----------------------------------------------------------|
|----------------7-----7h8----------------------------------|
|-9h11-------------------------11S13S=11-----9h11--9--------|
|-----------------------------------------------------11--9-|
|-----------------------------------------------------------|
|-----------------------------------------------------------|


|----------|
|----------|
|----------|
|----------|
|-11S12----|
|----------|


Gtr 5
|------------------------------------------------------------------|
|------------------12-----12h14------------------------------------|
|-13h14------------------------------14S16S=14-----13h14-----------|
|---------------------------------------------------------14--12---|
|------------------------------------------------------------------|
|------------------------------------------------------------------|


|----------|
|----------|
|----------|
|----------|
|-14S16----|
|----------|


Both Gtrs
|---------------------------------------------------------|
|---------------------------------------------------------|
|---------------------------------------------------------|
|---------------------------------------------------------|
|-2h4--4-4--4--2h4--4-4--7S6--0-0--0-0--0--2-2--2-2--2----|
|-2h4--4-4--4--2h4--4-4--7S6--0-0--0-0--0--2-2--2-2--2----|


|----------------------------------------------------------|
|----------------------------------------------------------|
|----------------------------------------------------------|
|----------------------------------------------------------|
|-2h4--4-4--4--2h4--4-4--7S6--0-0--0-0--0--2-2--2-2-2-2----|
|-2h4--4-4--4--2h4--4-4--7S6--0-0--0-0--0--2-2--2-2-2-2----|


Gtr 3
play twice
|-------0-------------0-------------0-------------0---------|
|-----0----0--------0----0--------0----0--------0----0------|
|---2--------2----2--------2----2--------2----1--------1----|
|-4-------------4-------------0-------------2---------------|
|-----------------------------------------------------------|
|-----------------------------------------------------------|


Both Gtrs
|---------------------------------------------------------|
|---------------------------------------------------------|
|---------------------------------------------------------|
|---------------------------------------------------------|
|-2h4--4-4--4--2h4--4-4--7S6--0-0--0-0--0--2-2--2-2--2----|
|-2h4--4-4--4--2h4--4-4--7S6--0-0--0-0--0--2-2--2-2--2----|


|----------------------------------------------------------|
|----------------------------------------------------------|
|----------------------------------------------------------|
|----------------------------------------------------------|
|-2h4--4-4--4--2h4--4-4--7S6--0-0--0-0--0--2-2--2-2-2-2----|
|-2h4--4-4--4--2h4--4-4--7S6--0-0--0-0--0--2-2--2-2-2-2----|


Gtr 3
play twice
|-------0-------------0-------------0-------------0---------|
|-----0----0--------0----0--------0----0--------0----0------|
|---2--------2----2--------2----2--------2----1--------1----|
|-4-------------4-------------0-------------2---------------|
|-----------------------------------------------------------|
|-----------------------------------------------------------|


Gtr 4
|-----------------------------------|
|-----------------------------------|
|-1h2------------2-----2S4-----2----|
|-----------------------------------|
|-----------------------------------|
|-----------------------------------|


|----------------------------|
|----------------------------|
|-2------1S2-2S4-4S6-6-7\----|
|----------------------------|
|----------------------------|
|----------------------------|


Gtr 5
|-----------------------------------|
|-----------------------------------|
|-4h6------------6-----6S7-----6----|
|-----------------------------------|
|-----------------------------------|
|-----------------------------------|


|-----------------------------|
|-----------------------------|
|-6------4S6-6S7-7S9-9-10\----|
|-----------------------------|
|-----------------------------|
|-----------------------------|


Both Gtrs
play 3 times
    PM|   PM    PM--|               PM|   PM    PM--|
|--------------------------------------------------------------------|
|--------------------------------------------------------------------|
|--------------------------------------------------------------------|
|-6-----6---6---------------------6-----6---6------------------------|
|-5-----5---5---------8-5-0-6-3-0-5-----5---5---------8-5-0-6-3-0----|
|---0-0---0---0-0-0-0-8-5-0-6-3-0---0-0---0---0-0-0-0-8-5-0-6-3-0----|


4th time
    PM|   PM    PM--|               PM|   PM    PM--|
|--------------------------------------------------------------------|
|--------------------------------------------------------------------|
|--------------------------------------------------------------------|
|-6-----6---6---------------------6-----6---6------------------------|
|-5-----5---5---------8-5-0-6-3-0-5-----5---5---------8-5-0-6-3-0-0--|
|---0-0---0---0-0-0-0-8-5-0-6-3-0---0-0---0---0-0-0-0-8-5-0-6-3-0-0--|


Both Gtrs
play 4 times, Gtr 3 Lead (to be added)
  PM----------------------------------------------|
|--------------------------------------------------------------------|
|--------------------------------------------------------------------|
|--------------------------------------------------------------------|
|--------------------------------------------------------------------|
|---------------------------------------------------8-5-0-6-3-0-0----|
|-0-0-0-0-0-0-0-0-0-0-0-0-0-0-0-0-0-0-0-0-0-0-0-0-0-8-5-0-6-3-0-0----|


Both Gtrs
play twice
    PM|   PM    PM--|               PM|   PM    PM--|
|--------------------------------------------------------------------|
|--------------------------------------------------------------------|
|--------------------------------------------------------------------|
|-6-----6---6---------------------6-----6---6------------------------|
|-5-----5---5---------8-5-0-6-3-0-5-----5---5---------8-5-0-6-3-0----|
|---0-0---0---0-0-0-0-8-5-0-6-3-0---0-0---0---0-0-0-0-8-5-0-6-3-0----|


Repeat Verse


Both Gtrs
play 4 times
    PM|   PM    PM--|               PM|   PM    PM--|
|--------------------------------------------------------------------|
|--------------------------------------------------------------------|
|--------------------------------------------------------------------|
|-6-----6---6---------------------6-----6---6------------------------|
|-5-----5---5---------8-5-0-6-3-0-5-----5---5---------8-5-0-6-3-0----|
|---0-0---0---0-0-0-0-8-5-0-6-3-0---0-0---0---0-0-0-0-8-5-0-6-3-0----|


Gtr 3
3rd time
play 4 times
|-------------------------------|
|--9--------9-------9------9----|
|-11b13----11b13---11b13==11----|
|-------------------------------|
|-------------------------------|
|-------------------------------|


Both Gtrs
play 4 times
  PM---------------------------------------------------|
|-----------------------------------------------------------|
|-----------------------------------------------------------|
|-----------------------------------------------------------|
|-----------------------------------------------------------|
|-----------------------------------------------------------|
|-0-0-0--0-0-0--0-0-0--0-0-0--0-0-0--0-0-0--0-0-0--0-0-0----|


  PM--------------------------|
|----------------------------------------------|
|----------------------------------------------|
|----------------------------------------------|
|----------------------------------------------|
|-------------------------------8-5-0-6-3-0----|
|-0-0-0--0-0-0--0-0-0--0-0-0--0-8-5-0-6-3-0----|


Gtr 3
play 4 times
        PM-----|      PM----|     PM----|     PM----|
|--------------------------------------------------------|
|--------------------------------------------------------|
|-10h12-9-10-7-9-9h10-7-9-5-7-7h9-5-7-3-5-5h7-3-5-2-3-*--|
|--------------------------------------------------------| *harmonics slide
|--------------------------------------------------------|
|--------------------------------------------------------|


Gtr 2
play 4 times
         PM------|         PM-----|        PM-----|      PM----|
|-------------------------------------------------------------------|
|-------------------------------------------------------------------|
|-14h15-12-14-10-12-12h14-10-12-9-10-10h12-9-10-7-9-9h10-7-9-5-7-*--|
|-------------------------------------------------------------------| * harmonics slide
|-------------------------------------------------------------------|
|-------------------------------------------------------------------|


Both Gtrs
play 3 times
  PM---------------------------------------------------|
|-----------------------------------------------------------|
|-----------------------------------------------------------|
|-----------------------------------------------------------|
|-----------------------------------------------------------|
|-----------------------------------------------------------|
|-0-0-0--0-0-0--0-0-0--0-0-0--0-0-0--0-0-0--0-0-0--0-0-0----|


  PM--------------------------|
|----------------------------------------------|
|----------------------------------------------|
|----------------------------------------------|
|----------------------------------------------|
|-------------------------------8-5-0-6-3-0----|
|-0-0-0--0-0-0--0-0-0--0-0-0--0-8-5-0-6-3-0----|


4th time
  PM----------------------------|                             PM|
|--------------------------------------------------------------------|
|--------------------------------------------------------------------|
|--------------------------------------------------------------------|
|--------------------------------------------------------------------|
|---------------------------------------------------8-5-0-6-3--------|
|-0-0-0-0-0-0-0-0-0-0-0-0-0-0-0-0-0-0-0-0-0-0-0-0-0-8-5-0-6-3-0-0----|


Tablature Legend
----------------
 h   - hammer-on
 p   - pull-off
 b   - bend
 pb  - pre-bend
 r   - bend release (if no number after the r, then release immediately)
 /\  - slide into or out of (from/to "nowhere")
 s   - legato slide
 S   - shift slide
  - natural harmonic
[n]  - artificial harmonic
n(n) - tapped harmonic
 ~   - vibrato
 tr  - trill
 T   - tap
 TP  - trem. picking
 PM  - palm muting
\n/  - tremolo bar dip; n = amount to dip
 \n  - tremolo bar down
 n/  - tremolo bar up
/n\  - tremolo bar inverted dip
 =   - hold bend; also acts as connecting device for hammers/pulls
 <>  - volume swell (louder/softer)
 x   - on rhythm slash represents muted slash
 o   - on rhythm slash represents single note slash

Misc Legend
-----------
 |  - bar
||  - double bar
||o - repeat start
o|| - repeat end
*|  - double bar (ending)
 :  - bar (freetime)
 $  - Segno
 &  - Coda
Tempo markers -  = BPM(8/16=s8/s16), where s8 = swing 8ths, s16 = swing 16ths

Добавлено: 16.03.2012
Другие материалы по этой песне:
  • Аккорды и текст

Страница создана 16.03.2012
http://primanota.ru/annihilator/loving-the-sinner-chords.htm
Привет, Гость.
Предлагаем пройти революционный курс по гитаре.
Подарок от PrimaNota.Ru, забирай!