PrimaNota.ru - самый крупный в мире бесплатный архив песенных текстов, аккордов, табулатур и нот


Annihilator - My Precious Lunatic Asylum - текст песни, таба, видео

Регистрация Запомнить меня
Войти через:  Facebook Google Twitter Vk Yandex Mail.ru

Annihilator - My Precious Lunatic Asylum - текст песни, таба, видео

Печатать
Просмотров: 153
Авторы музыки: Jeff Waters
Авторы текста: Jeff Waters, Joe Comeau
Annihilator - My Precious Lunatic Asylum

tabbed by 
ol753_357lo@yahoo.co.uk

Tuning - B E A D Gb B


Both Gtrs
play 8 times
  PM------------|
|--------------------|
|--------------------|
|--------------------|
|--------------------|
|--------------------|
|-0-0-0-0-0-0-0-0----|


Both Gtrs
play twice
  PM---------|                PM---------|
|-------------------------------------------------------|
|-------------------------------------------------------|
|-------------------------------------------------5--5--|
|-------------------------------------------------3--3--|
|-------------------------------------------------------|
|-0-0--0--0--0--6p3-0-5p3-5p3-0-0--0--0--0--6p3p0-------|

  PM---------|                PM---------|
|---------------------------------------------------------|
|---------------------------------------------------------|
|---------------------------------------------------------|
|---------------------------------------------------------|
|---------------------------------------------------------|
|-0-0--0--0--0--6p3-0-5p3-5p3-0-0--0--0--0--6p3p0-[1]-----|


Gtr 3
play twice
|---------------------------------------------------------------|
|---------------11p10p8-10p8-10p8---------------11p10p8---------|
|-9-9--9--9--9--------------------9-9--9--9--9----------10--10--|
|---------------------------------------------------------------|
|---------------------------------------------------------------|
|---------------------------------------------------------------|


|---------------------------------------------------------------|
|---------------11p10p8-10p8-10p8---------------11p10p8---------|
|-9-9--9--9--9--------------------9-9--9--9--9----------[10]----|
|---------------------------------------------------------------|
|---------------------------------------------------------------|
|---------------------------------------------------------------|


Verse
Both Gtrs
play twice
  PM---------|                PM---------|
|-------------------------------------------------------|
|-------------------------------------------------------|
|-------------------------------------------------5--5--|
|-------------------------------------------------3--3--|
|-------------------------------------------------------|
|-0-0--0--0--0--6p3-0-5p3-5p3-0-0--0--0--0--6p3p0-------|

  PM---------|                PM---------|
|---------------------------------------------------------|
|---------------------------------------------------------|
|---------------------------------------------------------|
|---------------------------------------------------------|
|---------------------------------------------------------|
|-0-0--0--0--0--6p3-0-5p3-5p3-0-0--0--0--0--6p3p0-[1]-----|


Both Gtrs
play twice, Gtr 3 (to be added)
  PM|   PM|   PM|   PM|   PM|     PM|   PM|   PM|   PM|   PM|
|--------------------------------------------------------------------|
|--------------------------------------------------------------------|
|-----4-----4-----4-----4-----4h5-----4-----4-----4-----4-----0h2----|
|--------------------------------------------------------------------|
|--------------------------------------------------------------------|
|-0-2---0-2---0-2---0-2---0-2-----0-2---0-2---0-2---0-2---0-0--------|


Gtr 1
  PM|   PM|   PM|   PM|   PM|     PM|   PM|   PM|   PM|   PM|
|--------------------------------------------------------------------|
|--------------------------------------------------------------------|
|-----4-----4-----4-----4-----4h5-----4-----4-----4-----4-----0h2----|
|--------------------------------------------------------------------|
|--------------------------------------------------------------------|
|-0-2---0-2---0-2---0-2---0-2-----0-2---0-2---0-2---0-2---0-0--------|


  PM|   PM|   PM|   PM|   PM|     PM|   PM|   PM|
|---------------------------------------------------|
|---------------------------------------------------|
|-----4-----4-----4-----4-----4h5-----4-----4-------|
|---------------------------------------------------|
|---------------------------------------------------|
|-0-2---0-2---0-2---0-2---0-2-----0-2---0-2---0-0---|


Gtr 2
  PM|   PM|   PM|   PM|   PM|     PM|   PM|   PM|   PM|   PM|
|--------------------------------------------------------------------|
|-----3-----3-----3-----3-----3h5-----3-----3-----3-----3-----3h5----|
|--------------------------------------------------------------------|
|--------------------------------------------------------------------|
|--------------------------------------------------------------------|
|-0-2---0-2---0-2---0-2---0-2-----0-2---0-2---0-2---0-2---0-0--------|


  PM|   PM|   PM|   PM|   PM|     PM|   PM|   PM|
|---------------------------------------------------|
|-----3-----3-----3-----3-----3h5-----3-----3-------|
|---------------------------------------------------|
|---------------------------------------------------|
|---------------------------------------------------|
|-0-2---0-2---0-2---0-2---0-2-----0-2---0-2---0-0---|


Both Gtrs
|--------|
|-/17----|
|-/15----|
|--------|
|--------|
|--------|


Both Gtrs
  PM---------|                PM---------|
|-------------------------------------------------------|
|-------------------------------------------------------|
|-------------------------------------------------5--5--|
|-------------------------------------------------3--3--|
|-------------------------------------------------------|
|-0-0--0--0--0--6p3-0-5p3-5p3-0-0--0--0--0--6p3p0-------|

  PM---------|                PM---------|
|---------------------------------------------------------|
|---------------------------------------------------------|
|---------------------------------------------------------|
|---------------------------------------------------------|
|---------------------------------------------------------|
|-0-0--0--0--0--6p3-0-5p3-5p3-0-0--0--0--0--6p3p0-[1]-----|


Gtr 3
|---------------------------------------------------------------|
|---------------11p10p8-10p8-10p8---------------11p10p8---------|
|-9-9--9--9--9--------------------9-9--9--9--9----------10--10--|
|---------------------------------------------------------------|
|---------------------------------------------------------------|
|---------------------------------------------------------------|


|---------------------------------------------------------------|
|---------------11p10p8-10p8-10p8---------------11p10p8---------|
|-9-9--9--9--9--------------------9-9--9--9--9----------[10]----|
|---------------------------------------------------------------|
|---------------------------------------------------------------|
|---------------------------------------------------------------|


Repeat Verse


Both Gtrs
play twice, Gtr 3 (to be added)
  PM|   PM|   PM|   PM|   PM|     PM|   PM|   PM|   PM|   PM|
|--------------------------------------------------------------------|
|--------------------------------------------------------------------|
|-----4-----4-----4-----4-----4h5-----4-----4-----4-----4-----0h2----|
|--------------------------------------------------------------------|
|--------------------------------------------------------------------|
|-0-2---0-2---0-2---0-2---0-2-----0-2---0-2---0-2---0-2---0-0--------|


Gtr 1
  PM|   PM|   PM|   PM|   PM|     PM|   PM|   PM|   PM|   PM|
|--------------------------------------------------------------------|
|--------------------------------------------------------------------|
|-----4-----4-----4-----4-----4h5-----4-----4-----4-----4-----0h2----|
|--------------------------------------------------------------------|
|--------------------------------------------------------------------|
|-0-2---0-2---0-2---0-2---0-2-----0-2---0-2---0-2---0-2---0-0--------|


  PM|   PM|   PM|   PM|   PM|     PM|   PM|   PM|
|---------------------------------------------------|
|---------------------------------------------------|
|-----4-----4-----4-----4-----4h5-----4-----4-------|
|---------------------------------------------------|
|---------------------------------------------------|
|-0-2---0-2---0-2---0-2---0-2-----0-2---0-2---0-0---|


Gtr 2
  PM|   PM|   PM|   PM|   PM|     PM|   PM|   PM|   PM|   PM|
|--------------------------------------------------------------------|
|-----3-----3-----3-----3-----3h5-----3-----3-----3-----3-----3h5----|
|--------------------------------------------------------------------|
|--------------------------------------------------------------------|
|--------------------------------------------------------------------|
|-0-2---0-2---0-2---0-2---0-2-----0-2---0-2---0-2---0-2---0-0--------|


  PM|   PM|   PM|   PM|   PM|     PM|   PM|   PM|
|---------------------------------------------------|
|-----3-----3-----3-----3-----3h5-----3-----3-------|
|---------------------------------------------------|
|---------------------------------------------------|
|---------------------------------------------------|
|-0-2---0-2---0-2---0-2---0-2-----0-2---0-2---0-0---|


Both Gtrs
|--------|
|-/17----|
|-/15----|
|--------|
|--------|
|--------|


Both Gtrs
play 4 times
  PM|   PM|   PM|   PM|   PM|   PM--|   PM|   PM|   PM|
|---------------------------------------------------------------|
|---------------------------------------------------------------|
|---------------------------------------------------------------|
|-----4-----5-----7-----5-----4-------4-----5-----7-----8--8----|
|-------------------------------------------------------6--6----|
|-0-2---0-3---0-5---0-3---0-2---0-0-2---0-3---0-5---0-0---------|


Both Gtrs
  PM----|   PM|      PM|   PM----------|   PM|      PM|   PM--|
|------------------------------------------------------------------|
|------------------------------------------------------------------|
|---------2--------------2---------------2--------------2----------|
|-4-4-2-4---4-2-4--4-2-4---4-2-4-4-4-2-4---4-2-4--4-2-4---4-2-4----|
|------------------------------------------------------------------|
|------------------------------------------------------------------|


  PM----|   PM|      PM|   PM----------|   PM|      PM|   PM--|
|------------------------------------------------------------------|
|------------------------------------------------------------------|
|---------2--------------2---------------2--------------2----------|
|-4-4-2-4---4-2-4--4-2-4---4-2-4-4-4-2-4---4-2-4--4-2-4---4-2-4----|
|------------------------------------------------------------------|
|------------------------------------------------------------------|


  PM----|   PM|      PM|   PM----------|   PM|      PM|   PM--|
|------------------------------------------------------------------|
|------------------------------------------------------------------|
|---------5--------------5---------------5--------------5----------|
|-7-7-5-7---7-5-7--7-5-7---7-5-7-7-7-5-7---7-5-7--7-5-7---7-5-7----|
|------------------------------------------------------------------|
|------------------------------------------------------------------|


  PM----|   PM|      PM|   PM------------|     PM-------------|     PM--|
|-----------------------------------------------------------------------------|
|-----------------------------------------------------------------------------|
|---------7--------------7------------------8--------------------9------------|
|-9-9-7-9---9-7-9--9-7-9---9-7-9-10-10-8-10---10-8-10-11-11-9-11---11-9-11----|
|-----------------------------------------------------------------------------|
|-----------------------------------------------------------------------------|


Gtr 1
play twice
  PM----|   PM|      PM|   PM----------|   PM|      PM|   PM--|
|------------------------------------------------------------------|
|------------------------------------------------------------------|
|---------2--------------2---------------2--------------2----------|
|-4-4-2-4---4-2-4--4-2-4---4-2-4-4-4-2-4---4-2-4--4-2-4---4-2-4----|
|------------------------------------------------------------------|
|------------------------------------------------------------------|


  PM----|   PM|      PM|   PM----------|   PM|      PM|   PM--|
|------------------------------------------------------------------|
|------------------------------------------------------------------|
|---------2--------------2---------------2--------------2----------|
|-4-4-2-4---4-2-4--4-2-4---4-2-4-4-4-2-4---4-2-4--4-2-4---4-2-4----|
|------------------------------------------------------------------|
|------------------------------------------------------------------|


  PM----|   PM|      PM|   PM----------|   PM|      PM|   PM--|
|------------------------------------------------------------------|
|------------------------------------------------------------------|
|---------5--------------5---------------5--------------5----------|
|-7-7-5-7---7-5-7--7-5-7---7-5-7-7-7-5-7---7-5-7--7-5-7---7-5-7----|
|------------------------------------------------------------------|
|------------------------------------------------------------------|


  PM----|   PM|      PM|   PM------------|     PM-------------|     PM--|
|-----------------------------------------------------------------------------|
|-----------------------------------------------------------------------------|
|---------7--------------7------------------8--------------------9------------|
|-9-9-7-9---9-7-9--9-7-9---9-7-9-10-10-8-10---10-8-10-11-11-9-11---11-9-11----|
|-----------------------------------------------------------------------------|
|-----------------------------------------------------------------------------|


Gtr 2
play twice
  PM----|   PM     PM|   PM----------|   PM|      PM|   PM--|
|----------------------------------------------------------------|
|----------------------------------------------------------------|
|---------6------------6---------------6--------------6----------|
|-7-7-6-7---6-7--7-6-7---7-6-7-7-7-6-7---7-6-7--7-6-7---7-6-7----|
|----------------------------------------------------------------|
|----------------------------------------------------------------|


   PM-----|     PM|        PM|     PM-------------|     PM|        PM|     PM--|
|------------------------------------------------------------------------------------|
|------------------------------------------------------------------------------------|
|------------9------------------9--------------------9------------------9------------|
|-10-10-9-10---10-9-10--10-9-10---10-9-10-10-10-9-10---10-9-10--10-9-10---10-9-10----|
|------------------------------------------------------------------------------------|
|------------------------------------------------------------------------------------|


   PM------|      PM|          PM|      PM---------------|      PM---------------|      PM---|
|--------------------------------------------------------------------------------------------------|
|--------------------------------------------------------------------------------------------------|
|-------------11--------------------11----------------------12----------------------13-------------|
|-12-12-11-12----12-11-12--12-11-12----12-11-12-13-13-12-13----13-12-13-14-14-13-14----14-13-14----|
|--------------------------------------------------------------------------------------------------|
|--------------------------------------------------------------------------------------------------|


Gtr 3
joins 2nd time
   PM--|     PM|        PM|     PM-------------|     PM|        PM|     PM--|
|---------------------------------------------------------------------------------|
|---------------------------------------------------------------------------------|
|---------9------------------9--------------------9------------------9------------|
|-11-9-11---11-9-11--11-9-11---11-9-11-11-11-9-11---11-9-11--11-9-11---11-9-11----|
|---------------------------------------------------------------------------------|
|---------------------------------------------------------------------------------|


   PM------|      PM|          PM|      PM---------------|      PM|          PM|      PM---|
|------------------------------------------------------------------------------------------------|
|------------------------------------------------------------------------------------------------|
|-------------12--------------------12----------------------12--------------------12-------------|
|-14-14-12-14----14-12-14--14-12-14----14-12-14-14-14-12-14----14-12-14--14-12-14----14-12-14----|
|------------------------------------------------------------------------------------------------|
|------------------------------------------------------------------------------------------------|


   PM------|      PM|          PM|      PM---------------|      PM---------------|      PM---|
|--------------------------------------------------------------------------------------------------|
|--------------------------------------------------------------------------------------------------|
|-------------14--------------------14----------------------15----------------------16-------------|
|-16-16-14-16----16-14-16--16-14-16----16-14-16-17-17-15-17----17-15-17-18-18-16-18----18-16-18----|
|--------------------------------------------------------------------------------------------------|
|--------------------------------------------------------------------------------------------------|


Both Gtrs
play 4 times
  PM------------------------------|
|------------------------------------------|
|------------------------------------------|
|------------------------------------------|
|------------------------------------------|
|-------------------------------------5----|
|-0-0-0---0-0-0---0-0-0-0-0---0-0-0---3----|


Both Gtrs
play 4 times
  PM------------------------------|
|------------------------------------------|
|------------------------------------------|
|------------------------------------------|
|------------------------------------------|
|-------------------------------------5----|
|-0-0-0---0-0-0---0-0-0-0-0---0-0-0---3----|


Gtr 3
play 4 times
|-------------------------------------------------------------------------------------------|
|-------------------------------------------------------------------------------------15----|
|----------16----------------14----------------16----------------14----------------16-------|
|-14-16-17----17-16-14-16-17----17-16-14-16-17----17-16-14-16-17----17-16-14-16-17----------|
|-------------------------------------------------------------------------------------------|
|-------------------------------------------------------------------------------------------|


Gtr 4
joins 3rd time
|-------------------------------------------------------------------------------------------|
|-------------------------------------------------------------------------------------19----|
|----------19----------------17----------------19----------------17----------------19-------|
|-17-19-21----21-19-17-19-21----21-19-17-19-21----21-19-17-19-21----21-19-17-19-21----------|
|-------------------------------------------------------------------------------------------|
|-------------------------------------------------------------------------------------------|


Both Gtrs
play 20 times, Gtr 3 Lead (to be added)
  PM------------------------------|
|------------------------------------------|
|------------------------------------------|
|------------------------------------------|
|------------------------------------------|
|-------------------------------------5----|
|-0-0-0---0-0-0---0-0-0-0-0---0-0-0---3----|


Gtr 1
play twice
  PM----|   PM|      PM|   PM----------|   PM|      PM|   PM--|
|------------------------------------------------------------------|
|------------------------------------------------------------------|
|---------2--------------2---------------2--------------2----------|
|-4-4-2-4---4-2-4--4-2-4---4-2-4-4-4-2-4---4-2-4--4-2-4---4-2-4----|
|------------------------------------------------------------------|
|------------------------------------------------------------------|


  PM----|   PM|      PM|   PM----------|   PM|      PM|   PM--|
|------------------------------------------------------------------|
|------------------------------------------------------------------|
|---------2--------------2---------------2--------------2----------|
|-4-4-2-4---4-2-4--4-2-4---4-2-4-4-4-2-4---4-2-4--4-2-4---4-2-4----|
|------------------------------------------------------------------|
|------------------------------------------------------------------|


  PM----|   PM|      PM|   PM----------|   PM|      PM|   PM--|
|------------------------------------------------------------------|
|------------------------------------------------------------------|
|---------5--------------5---------------5--------------5----------|
|-7-7-5-7---7-5-7--7-5-7---7-5-7-7-7-5-7---7-5-7--7-5-7---7-5-7----|
|------------------------------------------------------------------|
|------------------------------------------------------------------|


  PM----|   PM|      PM|   PM------------|     PM-------------|     PM--|
|-----------------------------------------------------------------------------|
|-----------------------------------------------------------------------------|
|---------7--------------7------------------8--------------------9------------|
|-9-9-7-9---9-7-9--9-7-9---9-7-9-10-10-8-10---10-8-10-11-11-9-11---11-9-11----|
|-----------------------------------------------------------------------------|
|-----------------------------------------------------------------------------|


Gtr 2
play twice
  PM----|   PM     PM|   PM----------|   PM|      PM|   PM--|
|----------------------------------------------------------------|
|----------------------------------------------------------------|
|---------6------------6---------------6--------------6----------|
|-7-7-6-7---6-7--7-6-7---7-6-7-7-7-6-7---7-6-7--7-6-7---7-6-7----|
|----------------------------------------------------------------|
|----------------------------------------------------------------|


   PM-----|     PM|        PM|     PM-------------|     PM|        PM|     PM--|
|------------------------------------------------------------------------------------|
|------------------------------------------------------------------------------------|
|------------9------------------9--------------------9------------------9------------|
|-10-10-9-10---10-9-10--10-9-10---10-9-10-10-10-9-10---10-9-10--10-9-10---10-9-10----|
|------------------------------------------------------------------------------------|
|------------------------------------------------------------------------------------|


   PM------|      PM|          PM|      PM---------------|      PM---------------|      PM---|
|--------------------------------------------------------------------------------------------------|
|--------------------------------------------------------------------------------------------------|
|-------------11--------------------11----------------------12----------------------13-------------|
|-12-12-11-12----12-11-12--12-11-12----12-11-12-13-13-12-13----13-12-13-14-14-13-14----14-13-14----|
|--------------------------------------------------------------------------------------------------|
|--------------------------------------------------------------------------------------------------|


Gtr 3
joins 2nd time
   PM--|     PM|        PM|     PM-------------|     PM|        PM|     PM--|
|---------------------------------------------------------------------------------|
|---------------------------------------------------------------------------------|
|---------9------------------9--------------------9------------------9------------|
|-11-9-11---11-9-11--11-9-11---11-9-11-11-11-9-11---11-9-11--11-9-11---11-9-11----|
|---------------------------------------------------------------------------------|
|---------------------------------------------------------------------------------|


   PM------|      PM|          PM|      PM---------------|      PM|          PM|      PM---|
|------------------------------------------------------------------------------------------------|
|------------------------------------------------------------------------------------------------|
|-------------12--------------------12----------------------12--------------------12-------------|
|-14-14-12-14----14-12-14--14-12-14----14-12-14-14-14-12-14----14-12-14--14-12-14----14-12-14----|
|------------------------------------------------------------------------------------------------|
|------------------------------------------------------------------------------------------------|


   PM------|      PM|          PM|      PM---------------|      PM---------------|      PM---|
|--------------------------------------------------------------------------------------------------|
|--------------------------------------------------------------------------------------------------|
|-------------14--------------------14----------------------15----------------------16-------------|
|-16-16-14-16----16-14-16--16-14-16----16-14-16-17-17-15-17----17-15-17-18-18-16-18----18-16-18----|
|--------------------------------------------------------------------------------------------------|
|--------------------------------------------------------------------------------------------------|


Repeat Verse


Both Gtrs
  PM---------|                PM---------|
|-------------------------------------------------------|
|-------------------------------------------------------|
|-------------------------------------------------5--5--|
|-------------------------------------------------3--3--|
|-------------------------------------------------------|
|-0-0--0--0--0--6p3-0-5p3-5p3-0-0--0--0--0--6p3p0-------|


  PM---------|                PM---------|
|---------------------------------------------------------|
|---------------------------------------------------------|
|---------------------------------------------------------|
|---------------------------------------------------------|
|---------------------------------------------------------|
|-0-0--0--0--0--6p3-0-5p3-5p3-0-0--0--0--0--6p3p0-[1]-----|


  PM---------|                PM---------|
|-------------------------------------------------------|
|-------------------------------------------------------|
|-------------------------------------------------5--5--|
|-------------------------------------------------3--3--|
|-------------------------------------------------------|
|-0-0--0--0--0--6p3-0-5p3-5p3-0-0--0--0--0--6p3p0-------|


  PM---------|                PM---------|
|--------------------------------------------|
|--------------------------------------------|
|--------------------------------------------|
|--------------------------------------------|
|--------------------------------------------|
|-0-0--0--0--0--6p3-0-5p3-5p3-0-0--0--0--0---|


Gtr 3
|---------------------------------------------------------------|
|---------------11p10p8-10p8-10p8---------------11p10p8---------|
|-9-9--9--9--9--------------------9-9--9--9--9----------10--10--|
|---------------------------------------------------------------|
|---------------------------------------------------------------|
|---------------------------------------------------------------|


|---------------------------------------------------------------|
|---------------11p10p8-10p8-10p8---------------11p10p8---------|
|-9-9--9--9--9--------------------9-9--9--9--9----------[10]----|
|---------------------------------------------------------------|
|---------------------------------------------------------------|
|---------------------------------------------------------------|


|---------------------------------------------------------------|
|---------------11p10p8-10p8-10p8---------------11p10p8---------|
|-9-9--9--9--9--------------------9-9--9--9--9----------10--10--|
|---------------------------------------------------------------|
|---------------------------------------------------------------|
|---------------------------------------------------------------|


|------------------------------------------------|
|---------------11p10p8-10p8-10p8----------------|
|-9-9--9--9--9--------------------9-9--9--9--9---|
|------------------------------------------------|
|------------------------------------------------|
|------------------------------------------------|


Tablature Legend
----------------
 h   - hammer-on
 p   - pull-off
 b   - bend
 pb  - pre-bend
 r   - bend release (if no number after the r, then release immediately)
 /\  - slide into or out of (from/to "nowhere")
 s   - legato slide
 S   - shift slide
  - natural harmonic
[n]  - artificial harmonic
n(n) - tapped harmonic
 ~   - vibrato
 tr  - trill
 T   - tap
 TP  - trem. picking
 PM  - palm muting
\n/  - tremolo bar dip; n = amount to dip
 \n  - tremolo bar down
 n/  - tremolo bar up
/n\  - tremolo bar inverted dip
 =   - hold bend; also acts as connecting device for hammers/pulls
 <>  - volume swell (louder/softer)
 x   - on rhythm slash represents muted slash
 o   - on rhythm slash represents single note slash

Misc Legend
-----------
 |  - bar
||  - double bar
||o - repeat start
o|| - repeat end
*|  - double bar (ending)
 :  - bar (freetime)
 $  - Segno
 &  - Coda
Tempo markers -  = BPM(8/16=s8/s16), where s8 = swing 8ths, s16 = swing 16ths

Добавлено: 01.04.2012
Другие материалы по этой песне:
  • Аккорды и текст

Страница создана 01.04.2012
http://primanota.ru/annihilator/my-precious-lunatic-asylum-chords.htm
Привет, Гость.
Предлагаем пройти революционный курс по гитаре.
Подарок от PrimaNota.Ru, забирай!