PrimaNota.ru - самый крупный в мире бесплатный архив песенных текстов, аккордов, табулатур и нот


Annihilator - Liquid Oval - таба, видео

Регистрация Запомнить меня
Войти через:  Facebook Google Twitter Vk Yandex Mail.ru

Annihilator - Liquid Oval - таба, видео

Печатать
Просмотров: 188
Авторы музыки: Jeff Waters

----------------------------------------------------------------------------
                            Liquid Oval - Annihilator
----------------------------------------------------------------------------
Tabbed by: Scum-bag Carrol
Email: S04114@stmcollege.org.uk

Tuning: E A D G B e


Gtr 2
play twice
|-------0-------------0-------------0-------------0---------|
|-----6----6--------6----6--------6----6--------6----6------|
|---5--------5----5--------5----5--------5----5--------5----|
|-0-------------8-------------7-------------8---------------|
|-----------------------------------------------------------|
|-----------------------------------------------------------|


Gtr 1
2nd time
|-0-----------------0----|
|-6-----------------6----|
|-5-----------------5----|
|-0-----------------7----|
|------------------------|
|------------------------|


Both Gtrs
play twice
|-------0-------------0-------------0-------------0---------|
|-----6----6--------6----6--------6----6--------6----6------|
|---5--------5----5--------5----5--------5----5--------5----|
|-0-------------8-------------7-------------8---------------|
|-----------------------------------------------------------|
|-----------------------------------------------------------|


Both Gtrs
play twice
|-------0-------------0-------------0-------------0---------|
|-----6----6--------6----6--------6----6--------6----6------|
|---5--------5----5--------5----5--------5----5--------5----|
|-0-------------8-------------7-------------8---------------|
|-----------------------------------------------------------|
|-----------------------------------------------------------|


Gtr 3
play twice
|-----5-5---------6-6----------8-8------------6-6----|
|---6-----------6------------6------10------6--------|
|-7-----------7------------5------------5-7----------|
|----------------------------------------------------|
|----------------------------------------------------|
|----------------------------------------------------|


Both Gtrs
play twice
|-------0-------------0-------------0-------------0---------|
|-----6----6--------6----6--------6----6--------6----6------|
|---5--------5----5--------5----5--------5----5--------5----|
|-0-------------8-------------7-------------8---------------|
|-----------------------------------------------------------|
|-----------------------------------------------------------|


Gtr 3
play twice
|-----5-5-----------6-6-----------8-8-----------6-6---------|
|---6------6------6------6------6-----10------6------6------|
|-7----------5--7----------7--5----------5--7----------7----|
|-----------------------------------------------------------|
|-----------------------------------------------------------|
|-----------------------------------------------------------|

Gtr 4
play twice
|---------------------------------------------------------------------|
|---------------------8-8S10------------------------------------------|
|-7-7-9-9S10----10-10------------------9-9h10---10S12S10--9-----------|
|--------------------------------10-10----------------------12---10---|
|---------------------------------------------------------------------|
|---------------------------------------------------------------------|


Gtr 5
joins 2nd time
|----------------------------------------------------------------------------|
|-------------------------11-11S13-------------------------------------------|
|-10-10-12-12S14----14-14--------------------9-9h10---10S12S10---------------|
|--------------------------------------10-10--------------------14-15---14---|
|----------------------------------------------------------------------------|
|----------------------------------------------------------------------------|


Gtr 4
|--------|
|--------|
|--------|
|-/12----|
|--------|
|--------|


Gtr 5
|--------|
|--------|
|--------|
|-/15----|
|--------|
|--------|


Both Gtrs
play twice
|-------0-------------0-------------0-------------0---------|
|-----6----6--------6----6--------6----6--------6----6------|
|---5--------5----5--------5----5--------5----5--------5----|
|-0-------------8-------------7-------------8---------------|
|-----------------------------------------------------------|
|-----------------------------------------------------------|


Gtr 3
play twice
|-----5-5---------6-6----------8-8------------6-6----|
|---6-----------6------------6------10------6--------|
|-7-----------7------------5------------5-7----------|
|----------------------------------------------------|
|----------------------------------------------------|
|----------------------------------------------------|


Both Gtrs
play twice
|-------0-------------0-------------0-------------0---------|
|-----6----6--------6----6--------6----6--------6----6------|
|---5--------5----5--------5----5--------5----5--------5----|
|-0-------------8-------------7-------------8---------------|
|-----------------------------------------------------------|
|-----------------------------------------------------------|


Gtr 3
play twice
|-----5-5-----------6-6-----------8-8-----------6-6---------|
|---6------6------6------6------6-----10------6------6------|
|-7----------5--7----------7--5----------5--7----------7----|
|-----------------------------------------------------------|
|-----------------------------------------------------------|
|-----------------------------------------------------------|


Gtr 4
play twice
|---------------------------------------------------------------------|
|---------------------8-8S10------------------------------------------|
|-7-7-9-9S10----10-10------------------9-9h10---10S12S10--9-----------|
|--------------------------------10-10----------------------12---10---|
|---------------------------------------------------------------------|
|---------------------------------------------------------------------|


Gtr 5
joins 2nd time
|----------------------------------------------------------------------------|
|-------------------------11-11S13-------------------------------------------|
|-10-10-12-12S14----14-14--------------------9-9h10---10S12S10---------------|
|--------------------------------------10-10--------------------14-15---14---|
|----------------------------------------------------------------------------|
|----------------------------------------------------------------------------|


Both Gtrs
play twice, Gtr 3 Lead still needs to be added, Sorry.
|------------------------------------------------------------------|
|-------------------------------------------------------5-----4----|
|-----8-----4---------6-------2-------8-----4---------4---4-----4--|
|---6-----2---------4-------6---6---6-----2---------4-------4------|
|-4-----0-------0-2-------4-------4-----0-------0-2----------------|
|-----------------------2------------------------------------------|


Both Gtrs
play twice
|------------------------------------------------------------------|
|-------------------------------------------------------5-----4----|
|-----8-----4---------6-------2-------8-----4---------4---4-----4--|
|---6-----2---------4-------6---6---6-----2---------4-------4------|
|-4-----0-------0-2-------4-------4-----0-------0-2----------------|
|-----------------------2------------------------------------------|


Gtr 3
|-------------------------------------------------------|
|----7-9-7h9p7---/10--9--7-----------7-9-7h9p7----------|
|-9------------9------------8---8h9------------8-8S9----|
|-------------------------------------------------------|
|-------------------------------------------------------|
|-------------------------------------------------------|


Gtr 3
|---------------------------------------------------------|
|------7-9-7h9p7---/10--9--7-----------7-9-7h9p7----------|
|-8h9------------9------------8---8h9------------8-8S9----|
|---------------------------------------------------------|
|---------------------------------------------------------|
|---------------------------------------------------------|


Gtr 4
|--------------------------------------------------------|
|------4-5-4h5p4---/7--5--4-----------4-5-4h5p4----------|
|-4h6------------6-----------4---4h6------------4-4S6----|
|--------------------------------------------------------|
|--------------------------------------------------------|
|--------------------------------------------------------|


Both Gtrs
play 4 times
|------------------------------------|
|-------0---0---0---------0-----0----|
|-----8-------8-------6-----6--------|
|---6---------------7---7-----7------|
|-4-------4-------0------------------|
|------------------------------------|


Both Gtrs
|----------------------------------------|
|---------0-----0---------0-----0--------|
|-----6-----6---------6-----6-------6----|
|---7---7-----7-----7---7-----7-----7----|
|-0---------------0-----------------0----|
|----------------------------------------|


Gtr 3
play 4 times
|-------------------------------------------|
|-9b10r=9b10r=9b10r=9b10r=9------10----9----|
|-------------------------------------------|
|-------------------------------------------|
|-------------------------------------------|
|-------------------------------------------|


Gtr 3
|-----------------------------------|
|-10---9-------10----9---------9h10-|
|-----------------------------------|
|-----------------------------------|
|-----------------------------------|
|-----------------------------------|


Gtr 4
play 4 times
|--------------------------------9----7----|
|-9b10r=9b10r=9b10r=9b10r=9----------------|
|------------------------------------------|
|------------------------------------------|
|------------------------------------------|
|------------------------------------------|


Gtr 4
|-9---7-------9----7---------7h9--|
|---------------------------------|
|---------------------------------|
|---------------------------------|
|---------------------------------|
|---------------------------------|


Gtr 5
|-12---11-----11h12-|
|-------------------|
|-------------------|
|-------------------|
|-------------------|
|-------------------|


Both Gtrs
play twice
|-------0-------------0-------------0-------------0---------|
|-----6----6--------6----6--------6----6--------6----6------|
|---5--------5----5--------5----5--------5----5--------5----|
|-0-------------8-------------7-------------8---------------|
|-----------------------------------------------------------|
|-----------------------------------------------------------|


Gtr 3
play twice
|-----5-5-----------6-6-----------8-8-----------6-6---------|
|---6------6------6------6------6-----10------6------6------|
|-7----------5--7----------7--5----------5--7----------7----|
|-----------------------------------------------------------|
|-----------------------------------------------------------|
|-----------------------------------------------------------|


Both Gtrs
play 4 times
|-------0-------------0-------------0-------------0---------|
|-----6----6--------6----6--------6----6--------6----6------|
|---5--------5----5--------5----5--------5----5--------5----|
|-0-------------8-------------7-------------8---------------|
|-----------------------------------------------------------|
|-----------------------------------------------------------|


Gtr 3
play 4 times
|-----5-5-----------6-6-----------8-8-----------6-6---------|
|---6------6------6------6------6-----10------6------6------|
|-7----------5--7----------7--5----------5--7----------7----|
|-----------------------------------------------------------|
|-----------------------------------------------------------|
|-----------------------------------------------------------|


Gtr 4
play 4 times
|---------------------------------------------------------------------|
|---------------------8-8S10------------------------------------------|
|-7-7-9-9S10----10-10------------------9-9h10---10S12S10--9-----------|
|--------------------------------10-10----------------------12---10---|
|---------------------------------------------------------------------|
|---------------------------------------------------------------------|


Gtr 5
3rd time
|----------------------------------------------------------------------------|
|-------------------------11-11S13-------------------------------------------|
|-10-10-12-12S14----14-14--------------------9-9h10---10S12S10---------------|
|--------------------------------------10-10--------------------14-15---14---|
|----------------------------------------------------------------------------|
|----------------------------------------------------------------------------|


Gtr 1
plays to fade
|-------0-------------0---------|
|-----6----6--------6----6------|
|---5--------5----5--------5----|
|-0-------------8---------------|
|-------------------------------|
|-------------------------------|


Gtr 2
plays to fade
|-------0-------------0---------|
|-----3----3--------3----3------|
|---2--------2----2--------2----|
|-0-------------5---------------|
|-------------------------------|
|-------------------------------|


Gtr 4
plays to fade
|--------------------|
|--------------------|
|-7-7-7-7-7-7-7-7----|
|--------------------|
|--------------------|
|--------------------|


Gtr 5
plays to fade
|----------------------------|
|----------------------------|
|-10-10-10-10-10-10-10-10----|
|----------------------------|
|----------------------------|
|----------------------------|
Добавлено: 12.04.2012
Другие материалы по этой песне:

Страница создана 12.04.2012
http://primanota.ru/annihilator/liquid-oval-chords.htm
Привет, Гость.
Предлагаем пройти революционный курс по гитаре.
Подарок от PrimaNota.Ru, забирай!