PrimaNota.ru - самый крупный в мире бесплатный архив песенных текстов, аккордов, табулатур и нот


Annihilator - Kraft Dinner - текст песни, таба, видео

Регистрация Запомнить меня
Войти через:  Facebook Google Twitter Vk Yandex Mail.ru

Annihilator - Kraft Dinner - текст песни, таба, видео

Печатать
Просмотров: 142
Annihilator - Kraf Dinner

tabbed by 
ol753_357lo@yahoo.co.uk

Tuning - E A D G B E


Gtr 1
|-----------------------------------------------------------|
|-------3---------------------------3-----------------------|
|-2-2-2-2---------------------2-2-2-2-----------------------|
|-2-2-2-0---------------------2-2-2-0-----------------------|
|-0-0-0-0---2-2-3-3-3-5-------0-0-0-0---2-2-3-3-3-5---------|
|-----------0-0-1-1-1-3---3p0-----------0-0-1-1-1-3---3p0---|


|----------------------------------|
|-------3--------------------------|
|-2-2-2-2--------------------------|
|-2-2-2-0---------------------5----|
|-0-0-0-0---2-2-3-3-3-5-------3----|
|-----------0-0-1-1-1-3---3p0------|

Gtr 2
|-----------------------|
|------------------3----|
|------------------0----|
|-2----------------2----|
|-0----------------3----|
|-----------------------|


Both Gtrs
play 4 times
|---------------------------|
|-------3-------------------|
|-2-2-2-2-------------------|
|-2-2-2-0-------------------|
|-0-0-0-0------3-3-3-5----5-|
|------------001-1-1-3----3-|


Both Gtrs
play 4 times
|---------------------------|
|-------3-------------------|
|-2-2-2-2-------------------|
|-2-2-2-0-------------------|
|-0-0-0-0------3-3-3-5----5-|
|------------001-1-1-3----3-|


Gtr 3
|----------12-------------12-------------------------------|
|-12h13-13-13----12h13-13-13--------8---8S6---6S5---5S3----|
|-12h14-14-14----12h14-14-14----------------7-----5--------|
|-------------------------------7h9---9--------------------|
|----------------------------------------------------------|
|----------------------------------------------------------|


|----------12-------------12------12----12----12----12-------------------------------------|
|-12h13-13-13----12h13-13-13---13-13-13-13-13-13-13-13----13-------------------------------|
|-12h14-14-14----12h14-14-14---14----14----14----14----14----14p12----12-------------------|
|------------------------------------------------------------------14----14-13-12----------|
|---------------------------------------------------------------------------------15-12\---|
|------------------------------------------------------------------------------------------|


Verse 1
Both Gtrs
  PM|       PM--|      PM|     PM----------------------------|
|-----------------------------------------------------------------|
|-----------------------------------------------------------------|
|-----------------------------------------------------------------|
|-----------------------------------------------------------------|
|-----6-5---------6p5------6p5------------------------------------|
|-5-6-------0-5-6------5-6-----5-5-5-5-6-6-6-6-8-8-8-8-6-6-6-6----|

  PM|       PM--|      PM|     PM----------------------------|
|-----------------------------------------------------------------|
|-----------------------------------------------------------------|
|-----------------------------------------------------------------|
|-----------------------------------------------------------------|
|-----6-5---------6p5------6p5------------------------------------|
|-5-6-------0-5-6------5-6-----5-5-5-5-6-6-6-6-8-8-8-8-6-6-6-6----|


  PM|       PM--|      PM|
|---------------------------------------------------------------------|
|---------------------------------------------------------------------|
|---------------------------------------------------------------------|
|------------------------------7-7-7-7-8-8-8-8-10-10-10-10-8-8-8-8----|
|-----6-5---------6p5------6p5----------------------------------------|
|-5-6-------0-5-6------5-6--------------------------------------------|


  PM|       PM--|      PM|     PM-------------------------|
|--------------------------------------------------------------|
|--------------------------------------------------------------|
|--------------------------------------------------------------|
|--------------------------------------------------------------|
|-----6-5---------6p5------6p5---------------------------------|
|-5-6-------0-5-6------5-6-----5-5-5-5-6-6-6-6-8-8-8--6-6-6----|


Both Gtrs
Chorus 1
        PM--|                      PM--|
|---------------------------------------------------------|
|---------------------------------------------------------|
|-----------------------<5>-------------------------------|
|-7-----------5-----<5>------7-----------5---------<5>----|
|-5--7--------3--5-----------5--7--------3--5--<5>--------|
|----5--0-0-0----3--------------5--0-0-0----3-------------|


        PM--|                      PM--|
|----------------------------------------------------|
|----------------------------------------------------|
|-----------------------<5>--------------------------|
|-7-----------5-----<5>------7-----------5-----------|
|-5--7--------3--5-----------5--7--------3--5-3-5----|
|----5--0-0-0----3--------------5--0-0-0----3-1-3----|


Both Gtrs
play twice
|-----------------------------------------------------------|
|-------3---------------------------3-----------------------|
|-2-2-2-2---------------------2-2-2-2-----------------------|
|-2-2-2-0---------------------2-2-2-0-----------------------|
|-0-0-0-0---2-2-3-3-3-5-------0-0-0-0---2-2-3-3-3-5---------|
|-----------0-0-1-1-1-3---3p0-----------0-0-1-1-1-3---3p0---|


Verse 2
Both Gtrs
  PM|       PM--|      PM|     PM----------------------------|
|-----------------------------------------------------------------|
|-----------------------------------------------------------------|
|-----------------------------------------------------------------|
|-----------------------------------------------------------------|
|-----6-5---------6p5------6p5------------------------------------|
|-5-6-------0-5-6------5-6-----5-5-5-5-6-6-6-6-8-8-8-8-6-6-6-6----|

  PM|       PM--|      PM|     PM----------------------------|
|-----------------------------------------------------------------|
|-----------------------------------------------------------------|
|-----------------------------------------------------------------|
|-----------------------------------------------------------------|
|-----6-5---------6p5------6p5------------------------------------|
|-5-6-------0-5-6------5-6-----5-5-5-5-6-6-6-6-8-8-8-8-6-6-6-6----|


Gtr 1
  PM|       PM--|      PM|
|---------------------------------------------------------------------|
|---------------------------------------------------------------------|
|---------------------------------------------------------------------|
|------------------------------7-7-7-7-8-8-8-8-10-10-10-10-8-8-8-8----|
|-----6-5---------6p5------6p5----------------------------------------|
|-5-6-------0-5-6------5-6--------------------------------------------|


Gtr 2
  PM|       PM--|      PM|
|-----------------------------------------------------------------|
|-----------------------------------------------------------------|
|------------------------------5-5-5-5-7-7-7-7-9-9-9-9-7-7-7-7----|
|-----------------------------------------------------------------|
|-----6-5---------6p5------6p5------------------------------------|
|-5-6-------0-5-6------5-6----------------------------------------|


Both Gtrs
  PM|       PM--|      PM|     PM-------------------------|
|--------------------------------------------------------------|
|--------------------------------------------------------------|
|--------------------------------------------------------------|
|--------------------------------------------------------------|
|-----6-5---------6p5------6p5---------------------------------|
|-5-6-------0-5-6------5-6-----5-5-5-5-6-6-6-6-8-8-8--6-6-6----|


Repeat Chorus


Both Gtrs
play twice
|-----------------------------------------------------------|
|-------3---------------------------3-----------------------|
|-2-2-2-2---------------------2-2-2-2-----------------------|
|-2-2-2-0---------------------2-2-2-0-----------------------|
|-0-0-0-0---2-2-3-3-3-5-------0-0-0-0---2-2-3-3-3-5---------|
|-----------0-0-1-1-1-3---3p0-----------0-0-1-1-1-3---3p0---|


Both Gtrs
play 4 times
  PM--|      PM------|
|-------------------------------|
|-------------------------------|
|-------------------------------|
|-------------------------------|
|-------5--5-----------7---7\---|
|-0-0-0-3--3-3-0-2-0-0-5---5\---|


Both Gtrs 
play 4 times
             PM------|
|-------------------------------|
|-------------------------------|
|-------------------------------|
|-------------------------------|
|-------7--7-----------9---9----|
|-2-2-2-5--5-5-4-4-4-4-7---7----|


Both Gtrs
play 4 times
     PM--------------|           PM--------------|
|-----------------------------------------------------------|
|----------------------3---3--------------------------------|
|----------------------0---2--------------------------------|
|-2--------------------2---0--2--------------------5--------|
|-0--0-0-0-0-0-0-0-0-0-3---0--0--0-0-0-0-0-0-0-0-0-3---5----|
|------------------------------------------------------3----|

     PM--------------|
|--------------------------------------------------|
|--------------------------3--3--------------------|
|--------------------------2--2--------------------|
|-2--------------------5---0--0-----------5--------|
|-0--0-0-0-0-0-0-0-0-0-3---0--0-------5---3---5----|
|-------------------------------------3-------3----|


Gtr 3
            PM------|           PM------|         PM------|
|----------------------------------------------------------------|
|----------------------------------------------------------------|
|-[5]b5.5-------------[5]b5.5-------------5b5.5------------------|
|-----------7-5-7-5-7-----------7-5-7-5-7---------7-5-7-5-7-7----|
|----------------------------------------------------------------|
|----------------------------------------------------------------|


            PM------|           PM------|
|----------------------------------------------------------|
|------------------------------------------8b10r==8p5-8----|
|-[5]b5.5-------------[5]b5.5------------------------------|
|-----------7-5-7-5-7-----------7-5-7-5-7------------------|
|----------------------------------------------------------|
|----------------------------------------------------------|


|-5-5-7p5---5-----------5h7p5---5-----------------------------------|
|---------8---8p5-----5-------8---8p5---5---------------------------|
|-----------------7b9-----------------7---8p7p5---7---5---5-5-------|
|-----------------------------------------------7---7---7------7----|
|-------------------------------------------------------------------|
|-------------------------------------------------------------------|


     PM   PM   PM
|----------------------------------15----------------------|
|----------------5h6---5-----12-13----13-12----12-13-------|
|-4----5----7--0-----7----------------------14-------14----|
|----0----3------------------------------------------------|
|----------------------------------------------------------|
|----------------------------------------------------------|


|--------10----10-12----10--------10----10-12----10--------10----10-12----10-------------------|
|-13b15-----13-------13----13b15-----13-------13----13b15-----13-------13----13-12-10-13-12----|
|----------------------------------------------------------------------------------------------|
|----------------------------------------------------------------------------------------------|
|----------------------------------------------------------------------------------------------|
|----------------------------------------------------------------------------------------------|


|-----10------12-------15-------17-------19-19b20------------|
|---8------10-------13-------15-------17---------------17----|
|-7------9-------12-------14-------16------------------------|
|------------------------------------------------------------|
|------------------------------------------------------------|
|------------------------------------------------------------|


|-15-15-15-15--15-15-15-15-15-15-15--15---------------------------------19b20----|
|-13-13-13-13--13-13-13-12-12-12-12--12--17--------------------20-19-17----------|
|-14-14-14-14--14-14-14-12-12-12-12--12--17-----------19-18-17-------------------|
|--------------------------------------------19-18-17----------------------------|
|--------------------------------------------------------------------------------|
|--------------------------------------------------------------------------------|


|-17-20----17-20----17-20----17-20-19-------------------|
|-------19-------19-------19------------17b19-----17----|
|---------------------------------------17b19-----17----|
|-------------------------------------------------------|
|-------------------------------------------------------|
|-------------------------------------------------------|


Repeat Verse 2


Both Gtrs
Chorus 2
        PM--|                      PM--|
|---------------------------------------------------------|
|---------------------------------------------------------|
|-----------------------<5>------------------------<5>----|
|-7-----------5-----<5>------7-----------5-----<5>--------|
|-5--7--------3--5-----------5--7--------3--5-------------|
|----5--0-0-0----3--------------5--0-0-0----3-------------|


        PM--|                  PM--|
|-----------------------------------------|
|-----------------------------------------|
|--------------------<5>------------------|
|-7-----------5----<5>---7-----------5----|
|-5--7--------3--5-------5--7--------3----|
|----5--0-0-0----3----------5--0-0-0------|


Both Gtrs
play 3 times
|-----------------------------------------------------------|
|-------3---------------------------3-----------------------|
|-2-2-2-2---------------------2-2-2-2-----------------------|
|-2-2-2-0---------------------2-2-2-0-----------------------|
|-0-0-0-0---2-2-3-3-3-5-------0-0-0-0---2-2-3-3-3-5---------|
|-----------0-0-1-1-1-3---3p0-----------0-0-1-1-1-3---3p0---|


Both Gtrs
play 4 times
  PM--|      PM------|
|-------------------------------|
|-------------------------------|
|-------------------------------|
|-------------------------------|
|-------5--5-----------7---7\---|
|-0-0-0-3--3-3-0-2-0-0-5---5\---|


Both Gtrs
|-----------|
|-----------|
|-----------|
|-2---------|
|-0--<3>----|
|-----------|


Tablature Legend
----------------
 h   - hammer-on
 p   - pull-off
 b   - bend
 pb  - pre-bend
 r   - bend release (if no number after the r, then release immediately)
 /\  - slide into or out of (from/to "nowhere")
 s   - legato slide
 S   - shift slide
  - natural harmonic
[n]  - artificial harmonic
n(n) - tapped harmonic
 ~   - vibrato
 tr  - trill
 T   - tap
 TP  - trem. picking
 PM  - palm muting
\n/  - tremolo bar dip; n = amount to dip
 \n  - tremolo bar down
 n/  - tremolo bar up
/n\  - tremolo bar inverted dip
 =   - hold bend; also acts as connecting device for hammers/pulls
 <>  - volume swell (louder/softer)
 x   - on rhythm slash represents muted slash
 o   - on rhythm slash represents single note slash

Misc Legend
-----------
 |  - bar
||  - double bar
||o - repeat start
o|| - repeat end
*|  - double bar (ending)
 :  - bar (freetime)
 $  - Segno
 &  - Coda
Tempo markers -  = BPM(8/16=s8/s16), where s8 = swing 8ths, s16 = swing 16ths
Добавлено: 29.04.2012
Другие материалы по этой песне:
  • Аккорды и текст

Страница создана 29.04.2012
http://primanota.ru/annihilator/kraft-dinner-chords.htm
Привет, Гость.
Предлагаем пройти революционный курс по гитаре.
Подарок от PrimaNota.Ru, забирай!