PrimaNota.ru - самый крупный в мире бесплатный архив песенных текстов, аккордов, табулатур и нот


Annihilator - Innocent Eyes - текст песни, таба, видео

Регистрация Запомнить меня
Войти через:  Facebook Google Twitter Vk Yandex Mail.ru

Annihilator - Innocent Eyes - текст песни, таба, видео

Печатать
Просмотров: 174
Авторы музыки: Jeff Waters
Авторы текста: Jeff Waters
Annihilator - Innocent Eyes

tabbed by ol753
www.annihilatormetal.com
ol753_357lo@yahoo.co.uk

Tuning - E A D G B E


Gtr 1
play twice
|-----0----0------------------0----0-------|
|---3---6-----------------------6----------|
|-5-------------------------5---------5----|
|-------------------------8----------------|
|------------------------------------------|
|------------------------------------------|


Gtr 2
|--------------------------------------|
|---------------------------1----------|
|-------------------------3----3-------|
|-----------------------3---------3----|
|---------------------1----------------|
|--------------------------------------|


|------------------------------------------|
|-------3-----------------------1----------|
|-----5----5------------------3----3-------|
|---5-----------------------3---------3----|
|-3-----------------------1----------------|
|------------------------------------------|


Gtr 1
play twice
|-3-------------------------3--------|
|-3---------------------------3------|
|-5-----------------------3-----5----|
|-5---------------------5------------|
|-3----------------------------------|
|------------------------------------|


Gtr 1
|----------------------------------------------------------------|
|-------3-------------------0---------3-------------------0------|
|-----5----5--------5-----5---5-----5----5--------5-----5---5----|
|---5--------5----5-----5---------5--------5----5-----5----------|
|-0-----------------------------0--------------------------------|
|---------------1-----3-----------------------1-----3------------|


Gtr 1
play twice
|-3-------------------------3--------|
|-3---------------------------3------|
|-5-----------------------3-----5----|
|-5---------------------5------------|
|-3----------------------------------|
|------------------------------------|


Gtr 1
|---------------------------------|
|-------3-------------------0-----|
|-----5----5--------5-----5---5---|
|---5--------5----5-----5---------|
|-0-------------------------------|
|---------------1-----3-----------|


Gtr 2
chord rhythm not tabbed
play twice
|-0----|
|-3----|
|-5----|
|-5----|
|-3----|
|------|

play twice
|-0-------3----3----|
|-3-------3----3----|
|-5-------5----4----|
|-5-------5----5----|
|-0-----------------|
|-------------------|


play twice
|-0----|
|-3----|
|-5----|
|-5----|
|-3----|
|------|


|-0-------3----3----|
|-3-------3----3----|
|-5-------5----4----|
|-5-------5----5----|
|-0-----------------|
|-------------------|


Gtr 1
|---0-----0--------------0------0-----0--------------0----|
|-----6-----6------0--------------6-----6------0----------|
|-------7------7-----5--------------7------7-----5--------|
|-0--------------------7------0--------------------7------|
|----------------0---------------------------0------------|
|---------------------------------------------------------|


Gtr 2
|---0-----0-------------0-------0-----0-------------0------|
|-----3-----3-----0---------------3-----3-----0------------|
|-------2-----------2-----2---------2-----------2-----2----|
|-0-------------------2-------0-------------------2--------|
|---------------0---------------------------0--------------|
|----------------------------------------------------------|


Both Gtrs
|---------------------------------------3--------------3-----------|
|-----6-----6---------6-----6---------3----3---------3----3--------|
|---5-----5-----5---5-----5---5-----5--------5-----4--------4------|
|-8-----8-----8---7-----7-------7-5------------5-5------------5----|
|------------------------------------------------------------------|
|------------------------------------------------------------------|


Gtr 1
play 4 times
|-3-------------------------3--------|
|-3---------------------------3------|
|-5-----------------------3-----5----|
|-5---------------------5------------|
|-3----------------------------------|
|------------------------------------|


Gtr 1
|----------------------------------------------------------------|
|-------3-------------------0---------3-------------------0------|
|-----5----5--------5-----5---5-----5----5--------5-----5---5----|
|---5--------5----5-----5---------5--------5----5-----5----------|
|-0-----------------------------0--------------------------------|
|---------------1-----3-----------------------1-----3------------|


Gtr 1
play twice
|-3-------------------------3--------|
|-3---------------------------3------|
|-5-----------------------3-----5----|
|-5---------------------5------------|
|-3----------------------------------|
|------------------------------------|


Gtr 1
|---------------------------------|
|-------3-------------------0-----|
|-----5----5--------5-----5---5---|
|---5--------5----5-----5---------|
|-0-------------------------------|
|---------------1-----3-----------|


Gtr 2
chord rhythm not tabbed
play twice
|-0----|
|-3----|
|-5----|
|-5----|
|-3----|
|------|

play twice
|-0-------3----3----|
|-3-------3----3----|
|-5-------5----4----|
|-5-------5----5----|
|-0-----------------|
|-------------------|


play twice
|-0----|
|-3----|
|-5----|
|-5----|
|-3----|
|------|


|-0-------3----3----|
|-3-------3----3----|
|-5-------5----4----|
|-5-------5----5----|
|-0-----------------|
|-------------------|


Gtr 3
play 3 times
  PM----------------------------|
|------------------------------------|
|------------------------------------|
|------------------------------------|
|------------------------------------|
|-3-3-3-3-3-3-3-3-3-3-3-3-3-3-3------|
|-------------------------------3----|


4th time
  PM----------------------------|
|------------------------------------|
|------------------------------------|
|------------------------------------|
|------------------------------------|
|-3-3-3-3-3-3-3-3-3-3-3-3-3-3-2-0----|
|------------------------------------|


Gtr 3
    PM|   PM  PM|   PM|   PM    PM  PM|   PM  PM|   PM|   PM
|--------------------------------------------------------------------|
|--------------------------------------------------------------------|
|--------------------------------------------------------------------|
|-2-----2---2---------------------2-----2---2------------------------|
|-0-0-0-0-0-0-0-0-3-----5---5-5---0-0-0-0-0-0-0-0-3-----5---5-5------|
|-----------------1-1-1-3-3-3-3-0-----------------1-1-1-3-3-3-3-0----|


Gtr 3
  PM----------------------------|
|------------------------------------|
|------------------------------------|
|------------------------------------|
|------------------------------------|
|-3-3-3-3-3-3-3-3-3-3-3-3-3-3-3------|
|-------------------------------3----|


4th time
  PM----------------------------|
|------------------------------------|
|------------------------------------|
|------------------------------------|
|------------------------------------|
|-3-3-3-3-3-3-3-3-3-3-3-3-3-3-2-0----|
|------------------------------------|


Gtr 3
    PM|   PM  PM|   PM|   PM
|---------------------------------|
|---------------------------------|
|---------------------------------|
|-2-----2---2---------------------|
|-0-0-0-0-0-0-0-0-3-----5---5-5---|
|-----------------1-1-1-3-3-3-3-0-|


    PM----------|   PM----------|
|------------------------------------|
|------------------------------------|
|------------------------------------|
|-7---------------2------------------|
|-5-5-5-5-5-5-5-5-0-0-0-0-0-0-0-0----|
|------------------------------------|


  PM----------------------------|   PM----------|
|----------------------------------------------------------------------------|
|----------------------------------------------------------------------------|
|----------------------------------------------------------------------------|
|-------------------------------------------------12-12-12-12-12-12-12-12----|
|-1-1-1-1-1-1-1-1-----------------5---------------10-10-10-10-10-10-10-10----|
|-----------------1-1-1-1-1-1-1-1-3-3-3-3-3-3-3-3----------------------------|


Gtr 1
play twice, Gtr 2 plays chords
|----------------------------------------------------------------|
|-------3-------------------0---------3-------------------0------|
|-----5----5--------5-----5---5-----5----5--------5-----5---5----|
|---5--------5----5-----5---------5--------5----5-----5----------|
|-0-----------------------------0--------------------------------|
|---------------1-----3-----------------------1-----3------------|


|-------------------------------------------------------------|
|-------3-------------------0---------0-------------0---------|
|-----5----5--------5-----5---5-----5----5--------5----5------|
|---5--------5----5-----5---------5--------5----5--------5----|
|-0-----------------------------------------------------------|
|---------------1-----3---------1-------------3---------------|


Gtr 3
|--------------------------------------------|
|--------------------------------------------|
|--------------------------------------------|
|-2-------------------2----------------------|
|-0--------3---5------0-------3---5----------|
|----------1---3----0---------1---3--------0-|


|-----------------------------------|
|-----------------------------------|
|-----------------------------------|
|-2---------------------------------|
|-0--------3---5-----3---------5----|
|----------1---3-----1---------3----|


Both Gtrs, Gtr 3 Lead (to be added)
|-0----------0-------0----|
|-3----------3-------1----|
|-5----------4-------2----|
|-5----------5-------3----|
|-0----------0-------0----|
|-------------------------|


|-0----------0-------0------0----|
|-3----------3-------6------6----|
|-5----------4-------5------5----|
|-5----------5-------7------7----|
|-0----------0-------0------0----|
|--------------------------------|


|-------------------------------------0--0---0-0----|
|-3--3---3--3-3--3---3-3--3--3---3-3--1--1---1-1----|
|-5--5---5--5-5--5---5-5--4--4---4-4--2--2---2-2----|
|-5--5---5--5-5--5---5-5--5--5---5-5--3--3---3-3----|
|-0--0---0--0-0--0---0-0--0--0---0-0--0--0---0-0----|
|---------------------------------------------------|


|---------------------------------------------------|
|-3--3---3--3-3--3---3-3--3--3---3-3--6--6---6-6----|
|-5--5---5--5-5--5---5-5--4--4---4-4--5--5---5-5----|
|-5--5---5--5-5--5---5-5--5--5---5-5--7--7---7-7----|
|-0--0---0--0-0--0---0-0--0--0---0-0--0--0---0-0----|
|---------------------------------------------------|


Both Gtrs
|------------------------------------------------------------|
|-----6-----6---------6-----6-----6S8------------6S8---------|
|---5-----5-----5---5-----5---5-------7--------------7-------|
|-8-----8-----8---7-----7-------7-------10-------------10----|
|------------------------------------------------------------|
|------------------------------------------------------------|


|---------------------------------------3--------------3-----------|
|-----6-----6---------6-----6---------3----3---------3----3--------|
|---5-----5-----5---5-----5---5-----5--------5-----4--------4------|
|-8-----8-----8---7-----7-------7-5------------5-5------------5----|
|------------------------------------------------------------------|
|------------------------------------------------------------------|


Gtr 1
play twice, Gtr 2 plays chords
|----------------------------------------------------------------|
|-------3-------------------0---------3-------------------0------|
|-----5----5--------5-----5---5-----5----5--------5-----5---5----|
|---5--------5----5-----5---------5--------5----5-----5----------|
|-0-----------------------------0--------------------------------|
|---------------1-----3-----------------------1-----3------------|


|-------------------------------------------------------------|
|-------3-------------------0---------0-------------0---------|
|-----5----5--------5-----5---5-----5----5--------5----5------|
|---5--------5----5-----5---------5--------5----5--------5----|
|-0-----------------------------------------------------------|
|---------------1-----3---------1-------------3---------------|


Gtr 3
|--------------------------------------------|
|--------------------------------------------|
|--------------------------------------------|
|-2-------------------2----------------------|
|-0--------3---5------0-------3---5----------|
|----------1---3----0---------1---3--------0-|


|-----------------------------------|
|-----------------------------------|
|-----------------------------------|
|-2---------------------------------|
|-0--------3---5-----3---------5----|
|----------1---3-----1---------3----|


Both Gtrs
|----------------------------------------------------------------|
|-------3-------------------0---------3-------------------0------|
|-----5----5--------5-----5---5-----5----5--------5-----5---5----|
|---5--------5----5-----5---------5--------5----5-----5----------|
|-0-----------------------------0--------------------------------|
|---------------1-----3-----------------------1-----3------------|


|-------------------------------------------------------------|
|-------3-------------------0---------0-------------0---------|
|-----5----5--------5-----5---5-----5----5--------5----5------|
|---5--------5----5-----5---------5--------5----5--------5----|
|-0-----------------------------------------------------------|
|---------------1-----3---------1-------------3---------------|


Gtr 3
|--------------------------------------------|
|--------------------------------------------|
|--------------------------------------------|
|-2-------------------2----------------------|
|-0--------3---5------0-------3---5----------|
|----------1---3----0---------1---3--------0-|


|--------------------|
|--------------------|
|--------------------|
|-2------------------|
|-0--------3---5-----|
|----------1---3-----|


Gtr 4
|--------------------------------------------------------------------------|
|------------------------------------------------------5-5-5h6-------------|
|----5-5h7--7-----5-5-5h7-4---------------5-5h7--7-------------7--5-4-4h5--|
|-/7------------7-------------7-5-5h7--/7------------7---------------------|
|--------------------------------------------------------------------------|
|--------------------------------------------------------------------------|


|---------------------------------------|
|---------------------------------------|
|----5-5h7--5-----5-5-5h7-4-------------|
|-/7------------7------------7-5--/7----|
|---------------------------------------|
|---------------------------------------|


Gtr 1
|-------------------3------------8*----|
|-------------0------------------0-----|
|--------5-----------------------5-----| * downstrum
|----5---------------------------5-----|
|-0------------------------------------|
|--------------------------------------|


Tablature Legend
----------------
 h   - hammer-on
 p   - pull-off
 b   - bend
 pb  - pre-bend
 r   - bend release (if no number after the r, then release immediately)
 /\  - slide into or out of (from/to "nowhere")
 s   - legato slide
 S   - shift slide
  - natural harmonic
[n]  - artificial harmonic
n(n) - tapped harmonic
 ~   - vibrato
 tr  - trill
 T   - tap
 TP  - trem. picking
 PM  - palm muting
\n/  - tremolo bar dip; n = amount to dip
 \n  - tremolo bar down
 n/  - tremolo bar up
/n\  - tremolo bar inverted dip
 =   - hold bend; also acts as connecting device for hammers/pulls
 <>  - volume swell (louder/softer)
 x   - on rhythm slash represents muted slash
 o   - on rhythm slash represents single note slash

Misc Legend
-----------
 |  - bar
||  - double bar
||o - repeat start
o|| - repeat end
*|  - double bar (ending)
 :  - bar (freetime)
 $  - Segno
 &  - Coda
Tempo markers -  = BPM(8/16=s8/s16), where s8 = swing 8ths, s16 = swing 16
Добавлено: 29.04.2012
Другие материалы по этой песне:
  • Аккорды и текст

Страница создана 27.03.2012
http://primanota.ru/annihilator/innocent-eyes-chords.htm
Привет, Гость.
Предлагаем пройти революционный курс по гитаре.
Подарок от PrimaNota.Ru, забирай!