PrimaNota.ru - самый крупный в мире бесплатный архив песенных текстов, аккордов, табулатур и нот


Annihilator - Never Neverland (album) - таба, видео

Регистрация Запомнить меня
Войти через:  Facebook Google Twitter Vk Yandex Mail.ru

Annihilator - Never Neverland (album) - таба, видео

Печатать
Просмотров: 165
             ANNIHILATOR - NEVER NEVERLAND ALBUM


NOTE: All Of These Were Tabbed By ol753_357lo@yahoo.co.uk, I am just posting them.

The Fun Palace
Tuning - E A D G B E


Gtr 1
play twice
  PM|   PM|   PM|           PM    PM    PM    PM       PM    PM    PM    PM
|-----------------------------------------------------------------------------------|
|-----------------------------------------------------------------------------------|
|-----------------------------------------------------------------------------------|
|-----4-----4-----4--4h5-4----2h4---2h4---2h4---2h4-2----2h4---2h4---2h4---4h5-4----|
|------------------------------------------------------2-----2-----2-----2----------|
|-0-2---0-2---0-2-----------0-----0-----0-----0-------------------------------------|


  PM    PM    PM  PM---------------------|
|----------------------------------------|
|----------------------------------------|
|----------------------------------------|
|---2h4---2h4---2------------------------|
|-0-----0-----0--------------------------|
|-----------------0-0-0-0-000-0-0--------|


  PM|   PM|   PM|           PM    PM    PM    PM       PM    PM    PM    PM
|-----------------------------------------------------------------------------------|
|-----------------------------------------------------------------------------------|
|-----------------------------------------------------------------------------------|
|-----4-----4-----4--4h5-4----2h4---2h4---2h4---2h4-2----2h4---2h4---2h4---4h5-4----|
|------------------------------------------------------2-----2-----2-----2----------|
|-0-2---0-2---0-2-----------0-----0-----0-----0-------------------------------------|


  PM    PM     PM
|--------------------------------|
|--------------------------------|
|--------------------------------|
|---2h4---2h4--------------------|
|-0-----0--------7----------7----|
|--------------0---0--0--0-------|


Gtr 2
                                           PM------------------|
|--------------------------------------------------------------|
|---------------------------------3----------------------------|
|---------------------------------2----------------------------|
|-----------------------4---------0----------------------------|
|-4----------2----------2---------0----------------------------|
|-2----------0----------2------------------0-0-0-0-000-0-0-----|

                                  PM
|------------------------------------------------|
|---------------------------3--------------------|
|---------------------------2--------------------|
|-------------------4-------0-------6----------6-|
|-4--------2--------2-------0--------------------|
|-2------\-0--------2-------------0---0--0--0----|


Gtr 1
play twice
  PM|   PM|   PM|           PM    PM    PM    PM       PM    PM    PM    PM
|-----------------------------------------------------------------------------------|
|-----------------------------------------------------------------------------------|
|-----------------------------------------------------------------------------------|
|-----4-----4-----4--4h5-4----2h4---2h4---2h4---2h4-2----2h4---2h4---2h4---4h5-4----|
|------------------------------------------------------2-----2-----2-----2----------|
|-0-2---0-2---0-2-----------0-----0-----0-----0-------------------------------------|


  PM    PM    PM  PM---------------------|
|----------------------------------------|
|----------------------------------------|
|----------------------------------------|
|---2h4---2h4---2------------------------|
|-0-----0-----0--------------------------|
|-----------------0-0-0-0-000-0-0--------|


  PM|   PM|   PM|           PM    PM    PM    PM       PM    PM    PM    PM
|-----------------------------------------------------------------------------------|
|-----------------------------------------------------------------------------------|
|-----------------------------------------------------------------------------------|
|-----4-----4-----4--4h5-4----2h4---2h4---2h4---2h4-2----2h4---2h4---2h4---4h5-4----|
|------------------------------------------------------2-----2-----2-----2----------|
|-0-2---0-2---0-2-----------0-----0-----0-----0-------------------------------------|


  PM    PM     PM
|--------------------------------|
|--------------------------------|
|--------------------------------|
|---2h4---2h4--------------------|
|-0-----0--------7----------7----|
|--------------0---0--0--0-------|


Gtr 2
  PM|   PM|   PM|           PM    PM    PM    PM       PM    PM    PM    PM
|-----------------------------------------------------------------------------------|
|-----------------------------------------------------------------------------------|
|-----2-----2-----2--2h4-2----1h2---1h2---1h2---1h2-1----1h2---1h2---1h2---2h4-2----|
|-----------------------------------------------------------------------------------|
|------------------------------------------------------2-----2-----2-----2----------|
|-0-2---0-2---0-2-----------0-----0-----0-----0-------------------------------------|


  PM    PM    PM  PM---------------------|
|----------------------------------------|
|----------------------------------------|
|---1h2---1h2---1------------------------|
|----------------------------------------|
|-0-----0-----0--------------------------|
|-----------------0-0-0-0-000-0-0--------|

  PM|   PM|   PM|           PM    PM    PM    PM       PM    PM    PM    PM
|-----------------------------------------------------------------------------------|
|-----------------------------------------------------------------------------------|
|-----2-----2-----2--2h4-2----1h2---1h2---1h2---1h2-1----1h2---1h2---1h2---2h4-2----|
|-----------------------------------------------------------------------------------|
|------------------------------------------------------2-----2-----2-----2----------|
|-0-2---0-2---0-2-----------0-----0-----0-----0-------------------------------------|

  PM    PM     PM
|--------------------------------|
|--------------------------------|
|---1h2---1h2--------------------|
|----------------6----------6----|
|-0-----0------------------------|
|--------------0---0--0--0-------|


Gtr 1
play twice
(second time, miss last note off)
  PM--|     PM--------|        PM--|       PM---------------------------------|       T
|-----------------------------------------------------------------------------|
|-------7-5-------------7-6----------10-8-------------------------------------|
|-7-6-4-----7-6-4-7-6-4-------10-9-7------10-9-7-9b10r=9(16)b10r=9b10r=9------|
|-----------------------------------------------------------------------------|
|-----------------------------------------------------------------------------|
|-----------------------------------------------------------------------------|


   PM---|        PM-----------|          PM---|         PM-------------------------------|
|------------------------------------------------------------------------------15-17-18--|
|---------12-10-----------------12-11------------15-13----------------14-16-17-----------|
|-12-11-9-------12-11-9-12-11-9---------15-14-12-------15-14-12-14-15--------------------|
|----------------------------------------------------------------------------------------|
|----------------------------------------------------------------------------------------|
|----------------------------------------------------------------------------------------|


Gtr 2
play twice
(second time, miss last note off)
                                                          T
|-------------------------------------------------------------------------------|
|-------7-5-------------7-6----------10-8---------------------------------------|
|-7-6-4-----7-6-4-7-6-4-------10-9-7------10-9-7-12b14r=12(19)b14r=12b14r=12----|
|-------------------------------------------------------------------------------|
|-------------------------------------------------------------------------------|
|-------------------------------------------------------------------------------|

   PM---|        PM-----------|          PM---|         PM-------------------------------|
|------------------------------------------------------------------------------15-17-18--|
|---------12-10-----------------12-11------------15-13----------------14-16-17-----------|
|-12-11-9-------12-11-9-12-11-9---------15-14-12-------15-14-12-14-15--------------------|
|----------------------------------------------------------------------------------------|
|----------------------------------------------------------------------------------------|
|----------------------------------------------------------------------------------------|


Verse
Both Gtrs
play twice
  PM|   PM  PM|       PM  PM--------|   PM  PM------------------------|
|---------------------------------------------------------------------|
|---------------------------------------------------------------------|
|-------------------0---------------------------------0-----0---------|
|-----5---5-------7-----5-------------5---5---------2-----4-----------|
|-----7---7-----5-------7-------------2---2-----0-3-----6-------------|
|-0-0---0---0-0-------0---0-0-0-0-0-0---0---0-0----------------0------|


Gtr 1
  PM|   PM  PM|       PM  PM--------|   PM  PM------------------------|
|---------------------------------------------------------------------|
|---------------------------------------------------------------------|
|-------------------0---------------------------------0-----0---------|
|-----5---5-------7-----5-------------5---5---------2-----4-----------|
|-----7---7-----5-------7-------------2---2-----0-3-----6-------------|
|-0-0---0---0-0-------0---0-0-0-000-0---0---0-0----------------\------|


  PM|   PM  PM|       PM  PM--------|   PM  PM------------------------|
|---------------------------------------------------------------------|
|---------------------------------------------------------------------|
|-------------------0---------------------------------0-----0---------|
|-----5---5-------7-----5-------------5---5---------2-----4-----------|
|-----7---7-----5-------7-------------2---2-----0-3-----6-------------|
|-0-0---0---0-0-------0---0-0-0-0-0-0---0---0-0----------------0------|


Gtr 2
  PM|   PM  PM|        PM  PM--------|   PM  PM------------------------|
|----------------------------------------------------------------------|
|----------------------------------------------------------------------|
|--------------------0---------------------------------0-----0---------|
|-----5---5-------10-----5-------------5---5---------2-----4-----------|
|-----7---7-----8--------7-------------2---2-----0-3-----6-------------|
|-0-0---0---0-0--------0---0-0-0-0-0-0---0---0-0----------------0------|


  PM|   PM  PM|        PM  PM--------|   PM  PM------------------------|
|----------------------------------------------------------------------|
|----------------------------------------------------------------------|
|--------------------0---------------------------------0-----0---------|
|-----5---5-------10-----5-------------5---5---------2-----4-----------|
|-----7---7-----8--------7-------------2---2-----0-3-----6-------------|
|-0-0---0---0-0--------0---0-0-0-000-0---0---0-0----------------\------|


Pre-Chorus
Gtr 1
  PM|   PM|   PM|           PM|   PM|   PM|           PM|   PM|   PM|
|------------------------------------------------------------------------------|
|------------------------------------------------------------------------------|
|------------------------------------------------------------------------------|
|-----4-----4-----4--4h5-4------4-----4-----4--2h4-2------4-----4-----4--4h5-4-|
|------------------------------------------------------------------------------|
|-0-2---0-2---0-2-----------0-2---0-2---0-2-----------0-2---0-2---0-2----------|


  PM|   PM|   PM|
|-----------------0-----------------|
|-------------------4-2-1-----------|
|-------------------------4-2-0-----|
|-----4-----4-------------------4---|
|-----------------------------------|
|-0-2---0-2---0-0-------------------|


Gtr 2
  PM|   PM|   PM|           PM|   PM|   PM|           PM|   PM|   PM|
|------------------------------------------------------------------------------|
|------------------------------------------------------------------------------|
|------------------------------------------------------------------------------|
|-----4-----4-----4--7h9-7------4-----4-----4--6h7-6------4-----4-----4--7h9-7-|
|------------------------------------------------------------------------------|
|-0-2---0-2---0-2-----------0-2---0-2---0-2-----------0-2---0-2---0-2----------|


  PM|   PM|   PM|
|-----------------3-----------------|
|-------------------7-5-4-----------|
|-------------------------7-5-3-----|
|-----4-----4-------------------7---|
|-----------------------------------|
|-0-2---0-2---0-0-------------------|


Chorus
Gtr 1
  PM|              PM--|             PM|               PM|
|-------------------------------------------------------------------------------------|
|-----15b17-15b17------------------------15b17-15b17----------------------------------|
|-------------------------------------------------------------------17----------14----|
|------------------------10S9------------------------------15-17-18----12-14-15-------|
|-------------------------8S7---------------------------------------------------------|
|-0-0--------------0-0-0------5-4----0-0---------------0-0----------------------------|


  PM|               PM|            PM|
|--------------------------------------10----10-------|
|-----15b17-15b17----------------------13b15-13b15----|
|-----------------------------------------------------|
|-----------------------10S9--------------------------|
|------------------------8S7--------------------------|
|-0-0---------------0-0------5-4---0-0----------------|


Gtr 2
  PM|              PM--|             PM|               PM|
|-------------------------------------------------------------------------------------|
|-----15b17-15b17------------------------19b20-19b20----------------------------------|
|-------------------------------------------------------------------17----------14----|
|------------------------10S9------------------------------15-17-18----12-14-15-------|
|-------------------------8S7---------------------------------------------------------|
|-0-0--------------0-0-0------5-4----0-0---------------0-0----------------------------|


  PM|               PM|            PM|
|--------------------------------------10----10-------|
|-----19b20-19b20----------------------13b15-13b15----|
|-----------------------------------------------------|
|-----------------------10S9--------------------------|
|------------------------8S7--------------------------|
|-0-0---------------0-0------5-4---0-0----------------|


Both Gtrs
|------------|
|------------|
|------------|
|------------|
|-7-6-8-8----|
|-5-4-6-6----|


Repeat Chorus


Both Gtrs
                   PM
|-----------------------|
|-7h8-8-12h13-13-8------|
|-7h9-9-12h14-14-9------|
|-----------------------|
|-----------------------|
|------------------0----|


Both Gtrs
  PM|   PM  PM|       PM  PM--------|   PM  PM------------------------|
|---------------------------------------------------------------------|
|---------------------------------------------------------------------|
|-------------------0---------------------------------0-----0---------|
|-----5---5-------7-----5-------------5---5---------2-----4-----------|
|-----7---7-----5-------7-------------2---2-----0-3-----6-------------|
|-0-0---0---0-0-------0---0-0-0-0-0-0---0---0-0----------------0------|


  PM|   PM  PM|       PM PM----------|   PM  PM---------------------------|
|-------------------------------------------------------------------------|
|-------------------------------------------------------------------------|
|-------------------0-----------------------------------------------------|
|-----5---5-------7-----5--------------5---5----------------------7-------|
|-----7---7-----5-------7--------------2---2-------5--4--2--4--5--5--2----|
|-0-0---0---0-0-------0---0-0-0-000-0----0---0-0-0-3--2--0--2--3-----0----|


Repeat Verse
Repeat Pre Chorus
Repeat Chorus


Gtr 1
(play notes aswell as slide)
|--------------------------------------------------------------------------------------|
|--------------------------------------------------------------------------------------|
|---7S10-----9S12------10S14-------13S12------7S10-----9S12-------15S14-------12S10----|
|--------------------------------------------------------------------------------------|
|-5------8S7------10S8-------12S11-------12S5------8S7------10S13-------12S10----------|
|--------------------------------------------------------------------------------------|

Gtr 2
|----------------------------------------------------------------------------------------|
|----------------------------------------------------------------------------------------|
|---7S10-----9S12------10S14-------13S12------7S10-----9S12-------19S17-------15S14------|
|----------------------------------------------------------------------------------------|
|-5------8S7------10S8-------12S11-------10S5------8S7------10S17-------15S13-------12---|
|----------------------------------------------------------------------------------------|


Both Gtrs
|-------0--------------------0-------0-----0---------------0----|
|-----6----6--------6------6-------6---6-----6-----6-----6------|
|---7--------7----7------7-------7-------7-------7-----7--------|
|-0------------9------8--------0---------------9-----8----------|
|---------------------------------------------------------------|
|---------------------------------------------------------------|


Repeat above


Both Gtrs
|--------------------------------|
|---------------------------3----|
|---9---7---5---3-2---------2----|
|-----------------0---------0----|
|-7---5---3---1---0---------0----|
|--------------------------------|


Both Gtrs
play 3 times
       PM|   PM|      PM|   PM|
|---------------------------------------------------------|
|-------------------------------------3--3----------------|
|-------------------------------0--0--2--2--2--2----------|
|-2h=4-----4-----2h=4-----4-----0--0--0--0--2--2--2--2----|
|-2--2-2-2-2-2-2-2--2-2-2-2-2-2-2--2--0--0--0--0--2--2----|
|-------------------------------3--3--------------0--0----|


       PM|   PM|      PM|   PM|                        PM
|----------------------------------------------------------|
|-------------------------------------3--3-----------------|
|-------------------------------0--0--2--2--2--2-----------|
|-2h=4-----4-----2h=4-----4-----0--0--0--0--2--2--9--------|
|-2--2-2-2-2-2-2-2--2-2-2-2-2-2-2--2--0--0--0--0--7--------|
|-------------------------------3--3-------------------0---|


Both Gtrs
        PM  PM|        PM  PM----|   PM---------------------------|
|-----------------------------------------------------------------|
|-----------------------------------------------------------------|
|-----------------------------------------------------------------|
|----------------------------------4-------7----------------------|
|---9-8---7--------9-8---7---------2-4-3-2-5----5---5-7-----------|
|-7-----0---0-0-7------0---0-0-0-0---2-1-0----0-3p0-3-5--0-5------|


         PM  PM|                   PM--|
|---------------------------------------------------------------|
|---------------------------------------------------------------|
|---------------------------------------------------------------|
|-----------------------------9-9--4-------7--------------------|
|----9-8---7--------9-8---7---7-7--2-4-3-2-5----5---5-7---------|
|-7------0---0-0-7------0---0--------2-1-0----0-3p0-3-5--0-5----|


         PM  PM|        PM  PM----|   PM---------------------------|
|------------------------------------------------------------------|
|------------------------------------------------------------------|
|------------------------------------------------------------------|
|-----------------------------------4-------7----------------------|
|----9-8---7--------9-8---7---------2-4-3-2-5----5---5-7-----------|
|-7------0---0-0-7------0---0-0-0-0---2-1-0----0-3p0-3-5--0-5------|

                                     PM--|                        PM--|                 PM|
|--------------------------------------------------------------------------------------------|
|--------------------------------------------------------------------------------------------|
|--------------------------------------------------------------------------------------------|
|-----------------------------9-9--4-------7---------------4-4--4-------7--------------------|
|----9-8---7--------9-8---7---7-7--2-4-3-2-5----5---5-7----2-2--2-4-3-2-5----5---5-7----2-2--|
|-7------0---0-0-7------0---0--------2-1-0----0-3p0-3-5--0--------2-1-0----0-3p0-3-5--0------|


Gtr 3
     PM|    PM   PM|    PM|    PM   PM|    PM|    PM   PM|    PM|    PM   PM|
|-------------------------------------------------------------------------------|
|-------------------------------------------------------------------------------|
|-11-----11---11-----11-----11---11-----11-----11---11-----11-----11---11-------|
|----9-9----9----9-9----9-9----9----9-9----9-9----9----9-9----9-9----9----9-9---|
|-------------------------------------------------------------------------------|
|-------------------------------------------------------------------------------|


Gtr 3
     PM|    PM   PM|    PM|    PM   PM|    PM|    PM   PM|    PM|    PM
|----------------------------------------------------------------------------|
|----------------------------------------------------------------------------|
|-11-----11---11-----11-----11---11-----11-----11---11-----11-----11---11\---|
|----9-9----9----9-9----9-9----9----9-9----9-9----9----9-9----9-9----9-------|
|----------------------------------------------------------------------------|
|----------------------------------------------------------------------------|


Gtr 4
      PM|      PM    PM|      PM|      PM    PM|      PM|      PM    PM|      PM|      PM
|-----------------------------------------------------------------------------------------------|
|-----------------------------------------------------------------------------------------------|
|-14-------14----14-------14-------14----14-------14-------14----14-------14-------14----14\----|
|----12-12----12----12-12----12-12----12----12-12----12-12----12----12-12----12-12----12--------|
|-----------------------------------------------------------------------------------------------|
|-----------------------------------------------------------------------------------------------|


Gtr 3
|-------------------------------------------------------------------------------------------------------|
|-7------7----------7------7----------------7-10p7-------7-10p7-------7-10p7-------7-10p7-------7-10p7--|
|-9b11---9b11-------9b11---9b11-------9b11---------9b11---------9b11---------9b11---------9b11----------|
|-------------------------------------------------------------------------------------------------------|
|-------------------------------------------------------------------------------------------------------|
|-------------------------------------------------------------------------------------------------------|


|----------------------------------------------------------------------------------------------------------------------------|
|-7------7----------10-------10------------------12-15p12--------12-15p12--------12-15p12--------12-15p12--------12-15p12----|
|-9b11---9b11-------12b14----12b14--------14b16-----------14b16-----------14b16-----------14b16-----------14b16--------------|
|----------------------------------------------------------------------------------------------------------------------------|
|----------------------------------------------------------------------------------------------------------------------------|
|----------------------------------------------------------------------------------------------------------------------------|


|--------------------------------------------------------------------------------------------------------------------------------|
|-12-------12----------14--------14------------------15-17p15--------15-17p15--------15-17p15--------15-17p15--------15-17p15----|
|-14b16----14b16-------16b18-----16b18--------17b19-----------17b19-----------17b19-----------17b19-----------17b19--------------|
|--------------------------------------------------------------------------------------------------------------------------------|
|--------------------------------------------------------------------------------------------------------------------------------|
|--------------------------------------------------------------------------------------------------------------------------------|


|-----------------------------------------------17--------------17--------------17--------------17-------------|
|-15------15---------17------17--------------------20p17-----------20p17-----------20p17-----------17-20b22----|
|-17b19---17b19------19b21---19b21-------19b21-----------19b21-----------19b21-----------19b21-----------------|
|--------------------------------------------------------------------------------------------------------------|
|--------------------------------------------------------------------------------------------------------------|
|--------------------------------------------------------------------------------------------------------------|


|---------------------------------------------------12h14p12----12-------------------------------------------|
|-14-15-15-15-15\-----14-15-15-15-15\------15b17-------------15----15-14-12-15-14-12----14-12----------------|
|-14-16-16-16-16\-----14-16-16-16-16\------------------------------------------------15-------15-14-12--11---|
|------------------------------------------------------------------------------------------------------------|
|------------------------------------------------------------------------------------------------------------|
|------------------------------------------------------------------------------------------------------------|


|-7h12p7---------7h10p7----7-----------------------------------------------------|
|--------10-7-10--------10---10-7--7-------------7----7----7---------------------|
|------------------------------------10-9-7-9-10---10---10---10-9-7-9h10p9p7-----|
|----------------------------------------------------------------------------9---|
|--------------------------------------------------------------------------------|
|--------------------------------------------------------------------------------|


|-------------------------------|
|--------------------7-7-7------|
|-9h10p9p7-----------7-7-7------|
|----------9-7-------------9----|
|--------------9-8-7------------|
|-------------------------------|


|--------19--------------19--------------19--------------19-19--------19-19--------19-19-------19-19-22p19----19-----------------------------------------------|
|-22b24-----22p19-22b24-----22p19-22b24-----22p19-22b24--------22b24--------22b24--------22b24-------------22----22p19----19-------------21--------------------|
|----------------------------------------------------------------------------------------------------------------------21----22p21p19--------21--19-------[21]-|
|-------------------------------------------------------------------------------------------------------------------------------------21------------21-19------|
|--------------------------------------------------------------------------------------------------------------------------------------------------------------|
|--------------------------------------------------------------------------------------------------------------------------------------------------------------|


                                                         PM    PM    PM    PM
|-------------------------------------------------------------------------------------------------|
|-19-------------------------------------------------------------------------------14-15----------|
|-19---------------------------------------------19-19-----19----18----16----14-16-------16-14----|
|-----21-19---------------------------------------------------------------------------------------|
|-----------21-20-19-17-19b20r=19p17-------19S21--------21----21----19----17----------------------|
|------------------------------------19-17--------------------------------------------------------|


|--------------14-15----14----------------------------------------------|
|-17b19-17b19--------17----17-15-14-------14-15----------17b19-17b19----|
|-----------------------------------16b18-------16-14-14----------------|
|-----------------------------------------------------------------------|
|-----------------------------------------------------------------------|
|-----------------------------------------------------------------------|


Both Gtrs
  PM-------------------------------------------------------------------|
|----------------------------------------------------------------------|
|----------------------------------------------------------------------|
|----------------------------------------------------------------------|
|----------------------------------------------------------------------|
|-2-2-2-2-2-2-2-2-2-2-2-2-2-2-2-2-5-5-5-5-5-5-5-5-5-5-5-5-5-5-5-5------|
|----------------------------------------------------------------------|


  PM---------------------------------------------------------------------------|                   PM
|------------------------------------------------------------------------------|
|------------------------------------------------------------------------------|
|------------------------------------------------------------------------------|
|------------------------------------------------------------------------------|
|-2-2-2-2-2-2-2-2-2-2-2--2-2-2--2-2-2--2-2-2--5-5-5-5-5-5-5-5-5-5-5-5-5-5-5----|
|-0-0-0-0-0-0-0-0-0-0-0--0-0-0--0-0-0--0-0-0--3-3-3-3-3-3-3-3-3-3-3-3-3-3-3-0--|


Gtr 3
  PM--|     PM--------|        PM--|       PM-----------------------------|
|-------------------------------------------------------------------------|
|-------7-5-------------7-6----------10-8---------------------------------|
|-7-6-4-----7-6-4-7-6-4-------10-9-7------10-9-7-9b10r=9b10r=9b10r=9------|
|-------------------------------------------------------------------------|
|-------------------------------------------------------------------------|
|-------------------------------------------------------------------------|


|------------------------------------------------------------------------------15-17\------|
|---------12-10-----------------12-11------------15-13----------------14-16-17-------------|
|-12-11-9-------12-11-9-12-11-9---------15-14-12-------15-14-12-14-15----------------------|
|------------------------------------------------------------------------------------------|
|------------------------------------------------------------------------------------------|
|------------------------------------------------------------------------------------------|


Repeat Verse
Repeat Pre Chorus
Repeat Chorus


Gtr 1
  PM|              PM--|             PM|               PM|
|-------------------------------------------------------------------------------------|
|-----15b17-15b17------------------------15b17-15b17----------------------------------|
|-------------------------------------------------------------------17----------14----|
|------------------------10S9------------------------------15-17-18----12-14-15-------|
|-------------------------8S7---------------------------------------------------------|
|-0-0--------------0-0-0------5-4----0-0---------------0-0----------------------------|


  PM|               PM|            PM|
|-----------------------------------------------------|
|-----15b17-15b17----------------------13b15-13b15----|
|-----------------------------------------------------|
|-----------------------10S9--------------------------|
|------------------------8S7--------------------------|
|-0-0---------------0-0------5-4---0-0----------------|


Gtr 2
  PM|              PM--|             PM|               PM|
|-------------------------------------------------------------------------------------|
|-----15b17-15b17------------------------19b20-19b20----------------------------------|
|-------------------------------------------------------------------17----------14----|
|------------------------10S9------------------------------15-17-18----12-14-15-------|
|-------------------------8S7---------------------------------------------------------|
|-0-0--------------0-0-0------5-4----0-0---------------0-0----------------------------|


  PM|               PM|            PM|
|-----------------------------------------------------|
|-----17b18-17b18----------------------17b18-17b18----|
|-----------------------------------------------------|
|-----------------------10S9--------------------------|
|------------------------8S7--------------------------|
|-0-0---------------0-0------5-4---0-0----------------|


Both Gtrs
play 5 times
  PM-------------------------------------------------------------------|
|----------------------------------------------------------------------|
|----------------------------------------------------------------------|
|---------------------------------------------------------------2------|
|---------------------------------------------------------0-0-0--------|
|----------------------------------------------------------------------|
|-0-0-0-0-0-0-0-0-0-0-0-0-0-0-0-0-0-0-0-0-0-0-0-0-1-1-1-1--------------|


6th time, fade out
  PM---------------------------------------------------------------------------------------------------|
|------------------------------------------------------------------------------------------------------|
|------------------------------------------------------------------------------------------------------|
|---------------------------------------------------------------------------------------------------2--|
|---------------------------------------------------------------------------------------------0-0-0----|
|------------------------------------------------------------------------------------------------------|
|-0-0-0--0-0-0--0-0-0--0-0-0--0-0-0--0-0-0--0-0-0--0-0-0--0-0-0--0-0-0--0-0-0--0-0-0--1-1-1-1----------|


Gtr 3
repeat to fade
    PM|   PM|   PM|   PM|   PM      PM|   PM|
|---------------------------------------------------------------------|
|-8-----8-----8-----8-----8-------8-----8-----8-----------------10----|
|---7-9---7-9---7-9---7-9---7-9-9---7-9---7-9-------------7-7-7-------|
|---------------------------------------------------------------------|
|-----------------------------------------------7-8-8-8-8-------------|
|---------------------------------------------------------------------|

Road To Ruin
Tuning - E A D G B E

(drum fill)

Both Gtrs
|------------|
|------------|
|------------|
|-------4----|
|-5-4-2-2----|
|-3-2-0------|


Both Gtrs
play 3 times
  PM-------------------------------------|
|----------------------------------------|
|----------------------------------------|
|----------------------------------------|
|----------------------------------------|
|----------------------------------------|
|-0-2-2-2-2-2-2-2-2-2-2-2-2-2-2h3p2------|


4th time
  PM---------------------------|
|------------------------------|
|------------------------------|
|------------------------------|
|-----------------------4------|
|-----------------5-4-2-2------|
|-0-2-2-2-2-2-2-2-3-2-0--------|


Both Gtrs
  PM----------------------|       PM---------------------------|
|--------------------------------------------------------------|
|--------------------------------------------------------------|
|--------------------------------------------------------------|
|--------------------------------------------------------------|
|-------------------------------------------------------8------|
|-0-2-2-2-2--2-2-2--2-2-2-2-2h3p2-0-2-2-2-2--2-2-2--2-0-6------|


  PM----------------------|       PM---------------------------|
|--------------------------------------------------------------|
|--------------------------------------------------------------|
|-------------------------------------------------------5------|
|-------------------------------------------------------3------|
|--------------------------------------------------------------|
|-0-2-2-2-2--2-2-2--2-2-2-2-2h3p2-0-2-2-2-2--2-2-2--2-0--------|


  PM----------------------|       PM---------------------------|
|--------------------------------------------------------------|
|--------------------------------------------------------------|
|--------------------------------------------------------------|
|--------------------------------------------------------------|
|-------------------------------------------------------8------|
|-0-2-2-2-2--2-2-2--2-2-2-2-2h3p2-0-2-2-2-2--2-2-2--2-0-6------|


  PM----------------------|       PM------------------------------|
|-----------------------------------------------------------------|
|-----------------------------------------------------------------|
|-----------------------------------------------------------------|
|-----------------------------------------------------------------|
|-------------------------------------------------------3--3------|
|-0-2-2-2-2--2-2-2--2-2-2-2-2h3p2-0-2-2-2-2--2-2-2--2-0-1--1------|


Both Gtrs
  PM-------------------------------------------------------------------|
|----------------------------------------------------------------------|
|----------------------------------------------------------------------|
|----------------------------------------------------------------------|
|----------------------------------------------------------------------|
|-------------------2-0---3-2-0---------------------2-0---3-2-0--------|
|-0-0-0-0-0-0-0-0-0-----3-------3-0-0-0-0-0-0-0-0-0-----3-------3------|


Gtr 1
                  PM---------------------------------------------|                             PM
|----------------------------------------------------------------|
|----------------------------------------------------------------|
|-5--4--2-----------------------------------------<5>-----<5>----|
|----------5--4-2-----------------<7>-----<5>---------<5>--------|
|-------------------------------------<7>-----<5>----------------|
|-----------------0-0-0-0-0-0-0-0-----------------------------0--|


Gtr 2
                  PM---------------------------------------------|                             PM
|----------------------------------------------------------------|
|----------------------------------------------------------------|
|-9--7--5-----------------------------------------<5>-----<5>----|
|----------9--7-5-----------------<7>-----<5>---------<5>--------|
|-------------------------------------<7>-----<5>----------------|
|-----------------0-0-0-0-0-0-0-0-----------------------------0--|


Both Gtrs
  PM------------|      PM|     PM----------------|      PM|     PM-------|
|------------------------------------------------------------------------|
|------------------------------------------------------------------------|
|------------------------------------------------------------------------|
|-----------------9S10-----7S9---------------------9S10-----7S9----------|
|-----------------7S=8-----5S7---------------------7S=8-----5S7----------|
|-0-0-0-0-0-0-0-0------0-0-----0-0-0-0-0-0-0-0-0-0------0-0-----0-0------|


Gtr 1
|---------------------------------|
|---------------------------------|
|-5--4--2-------------------------|
|----------5--4-2-5--4--2---------|
|-----------------3--2--0--5-4----|
|--------------------------3-2----|

Gtr 2
|---------------------------------|
|---------------------------------|
|-9--7--5-------------------------|
|----------9--7-5-5--4--2---------|
|-----------------3--2--0--5-4----|
|--------------------------3-2----|


Verse
Both Gtrs
play twice
  PM--|     PM----------------------|     PM-------------------|
|--------------------------------------------------------------|
|--------------------------------------------------------------|
|--------------------------------------------------------------|
|---------------------------------------------------5---5------|
|-------8-----------------------------8-------------3---3------|
|-3-3-6-6---6-3-6-3-3-3-3-3-3-3-3-3-3-6---6-3-6-3-3------------|


  PM--|     PM----------------|                   PM-------------|
|----------------------------------------------------------------|
|----------------------------------------------------------------|
|-------------------------------7S8-8-8--8-----------------------|
|-------------------------------5S6-6-6--6--8--8-----------------|
|-------8-----------------------------------6--6--6-6-5-4-3------|
|-3-3-6-6---6-3-6-3-3-3-3-3-3-3----------------------------------|


Chorus
Both Gtrs
  PM----------------------|       PM---------------------------|
|--------------------------------------------------------------|
|--------------------------------------------------------------|
|--------------------------------------------------------------|
|--------------------------------------------------------------|
|-------------------------------------------------------8------|
|-0-2-2-2-2--2-2-2--2-2-2-2-2h3p2-0-2-2-2-2--2-2-2--2-0-6------|


  PM----------------------|       PM---------------------------|
|--------------------------------------------------------------|
|--------------------------------------------------------------|
|-------------------------------------------------------5------|
|-------------------------------------------------------3------|
|--------------------------------------------------------------|
|-0-2-2-2-2--2-2-2--2-2-2-2-2h3p2-0-2-2-2-2--2-2-2--2-0--------|


  PM----------------------|       PM---------------------------|
|--------------------------------------------------------------|
|--------------------------------------------------------------|
|--------------------------------------------------------------|
|--------------------------------------------------------------|
|-------------------------------------------------------8------|
|-0-2-2-2-2--2-2-2--2-2-2-2-2h3p2-0-2-2-2-2--2-2-2--2-0-6------|


  PM----------------------|       PM------------------------------|
|-----------------------------------------------------------------|
|-----------------------------------------------------------------|
|-----------------------------------------------------------------|
|-----------------------------------------------------------------|
|-------------------------------------------------------3--3------|
|-0-2-2-2-2--2-2-2--2-2-2-2-2h3p2-0-2-2-2-2--2-2-2--2-0-1--1------|


Both Gtrs
  PM-------------------------------------------------------------------|
|----------------------------------------------------------------------|
|----------------------------------------------------------------------|
|----------------------------------------------------------------------|
|----------------------------------------------------------------------|
|-------------------2-0---3-2-0---------------------2-0---3-2-0--------|
|-0-0-0-0-0-0-0-0-0-----3-------3-0-0-0-0-0-0-0-0-0-----3-------3------|


Gtr 1
                  PM---------------------------------------------|                             PM
|----------------------------------------------------------------|
|----------------------------------------------------------------|
|-5--4--2-----------------------------------------<5>-----<5>----|
|----------5--4-2-----------------<7>-----<5>---------<5>--------|
|-------------------------------------<7>-----<5>----------------|
|-----------------0-0-0-0-0-0-0-0-----------------------------0--|


Gtr 2
                  PM---------------------------------------------|                             PM
|----------------------------------------------------------------|
|----------------------------------------------------------------|
|-9--7--5-----------------------------------------<5>-----<5>----|
|----------9--7-5-----------------<7>-----<5>---------<5>--------|
|-------------------------------------<7>-----<5>----------------|
|-----------------0-0-0-0-0-0-0-0-----------------------------0--|


Both Gtrs
  PM------------|      PM|     PM----------------|      PM|     PM-------|
|------------------------------------------------------------------------|
|------------------------------------------------------------------------|
|------------------------------------------------------------------------|
|-----------------9S10-----7S9---------------------9S10-----7S9----------|
|-----------------7S=8-----5S7---------------------7S=8-----5S7----------|
|-0-0-0-0-0-0-0-0------0-0-----0-0-0-0-0-0-0-0-0-0------0-0-----0-0------|


Gtr 1
|---------------------------------|
|---------------------------------|
|-5--4--2-------------------------|
|----------5--4-2-5--4--2---------|
|-----------------3--2--0--5-4----|
|--------------------------3-2----|

Gtr 2
|---------------------------------|
|---------------------------------|
|-9--7--5-------------------------|
|----------9--7-5-5--4--2---------|
|-----------------3--2--0--5-4----|
|--------------------------3-2----|


Repeat Verse
Repeat Chorus


Gtr 1, Gtr 2 accentuates
  PM|   PM|   PM    PM|       PM|   PM|   PM    PM----|
|----------------------------------------------------------|
|----------------------------------------------------------|
|----------------------------------------------------------|
|---------------8S7-------------------------8S7------------|
|-----7-----8---6S5-----3--3------7-----8---6S5------------|
|-0-5---0-6---0-----0-0-1--1--0-5---0-6---0-----0-0-0-0----|


  PM|   PM|   PM    PM|
|---------------------------------------------|
|---------------------------------------------|
|---------------------------------------------|
|---------------8S7---------------------------|
|-----7-----8---6S5-----3--3----9p7---10-9----|
|-0-5---0-6---0-----0-0-1--1--7-----7---------|


Both Gtrs
play 4 times
     PM  PM|   PM    PM|       PM|   PM|   PM    PM-------------|
|---------------------------------------------------------------|
|---------------------------------------------------------------|
|---------------------------------------------------------------|
|----------------8S7-------------------------8S7----------------|
|------7-----8---6S5-----3--3------7-----8---6S5----------------|
|-0--5---0-6---0-----0-0-1--1--0-5---0-6---0-----0-0-0-0-0-\----|


Both Gtrs
|-------------------------------------------------------|
|-------------------------------------------------------|
|----------------------------------------2--2-----------|
|-6-6-6-4---4--4-4-4-2---2--6-6-6-4------2--2-----------|
|-4-4-4-4---4--2-2-2-2---2--4-4-4-4--4-4-0--0--4---4----|
|----------------------------------------------2---2----|

                        PM------|     PM------------------------|
|---------------------------------------------------------------|
|---------------------------------------------------------------|
|---------------------------------------------------------------|
|-6-6-6-4---4--9-9-9-9--------------------------------9--9------|
|-4-4-4-4---4--7-7-7-7--7-7-7-7-7-7-------------------7--7------|
|-----------------------5-5-5-5-5-5---5-4-2-0-5-4-2-0-----------|


|-------------------------------------------------------|
|-------------------------------------------------------|
|----------------------------------------2--2-----------|
|-6-6-6-4---4--4-4-4-2---2--6-6-6-4------2--2-----------|
|-4-4-4-4---4--2-2-2-2---2--4-4-4-4--4-4-0--0--4---4----|
|----------------------------------------------2---2----|


                        PM------|     PM-------------------------|
|----------------------------------------------------------------|
|----------------------------------------------------------------|
|----------------------------------------------------------------|
|-6-6-6-4---4--9-9-9-9-------------------------------------------|
|-4-4-4-4---4--7-7-7-7--7-7-7-7-7-7-------------------8--7--5----|
|-----------------------5-5-5-5-5-5---5-4-2-0-5-4-2-0-6--5--3----|


Both Gtrs
     PM-------|            PM   PM-------------------------|
|----------------------------------------------------------|
|----------------------------------------------------------|
|----------------------------------------------------------|
|-6--------------------------6-------------2-2-2-2--4------|
|-4--6---5------4-----4--4---4--6---5------0-0-0-0--2------|
|----4-0-3--2-0-2p0-0-2--2-0----4-0-3--2-0-----------------|


     PM-------|            PM   PM------------------------|
|---------------------------------------------------------|
|---------------------------------------------------------|
|---------------------------------------------------------|
|-6--------------------------6-----------9--9--4---6------|
|-4--6---5------4-----4--4---4--6---5----7--7--2---4------|
|----4-0-3--2-0-2p0-0-2--2-0----4-0-3--0------------------|


  PM-|          PM    PM   PM----|
|-------------------------------------------------|
|-------------------------------------------------|
|-------------------------------------------------|
|-----------------------6----------9--9---4--4----|
|-6--5--4---4-----4-----4--6--5----7--7---2--2----|
|-4--3--2p0-2p0-0-2---0----4--3--0------0---------|


     PM-------|            PM   PM-------------------------|             PM
|----------------------------------------------------------|
|----------------------------------------------------------|
|----------------------------------------------------------|
|-6--------------------------6-------------2-2-2-2--4------|
|-4--6---5------4-----4--4---4--6---5------0-0-0-0--2------|
|----4-0-3--2-0-2p0-0-2--2-0----4-0-3--2-0-------------0---|


Both Gtrs
play twice
  PM----------------------------------------------------------|     PM
|-------------------------------------------------------------|
|------------------------------------------------3------------|
|------------------------------------------------2-----2------|
|------------------------------------------------0-----2------|
|------------------------------------------------0-----0------|
|-3-0-0-3--0-0-0-3-0-0-3--0-0-0-3-0-0-3--0-0-0-0-----0--------|


  PM--------------------------------------------------------|
|-----------------------------------------------------------|
|-----------------------------------------------------------|
|------------------------------------------------2---2------|
|------------------------------------------------2---2------|
|------------------------------------------------0---0------|
|-3-0-0-3--0-0-0-3-0-0-3--0-0-0-3-0-0-3--0-0-0-0------------|

  PM-------------------------------------------|     PM    PM       PM-------------------|      PM
|----------------------------------------------------------------------------------------|
|----------------------------------------------------------------------------------------|
|-------------------------------------------------9----9S8---[8]S9----9S11----[11]S9-----|
|-9-11-11-11--11-11-11-9-11-11-11--11-11-11-11-11---11-----9-------11------13--------11--|
|----------------------------------------------------------------------------------------|
|----------------------------------------------------------------------------------------|


  PM------------------------------------------------------------------------|
|---------------------------------------------------------------------------|
|----------------------12--12--12--12--9-9-9-9-9-9--------------------------|
|-----------------------9---9---8---9--9-9-9-9-9-9---9p8p6---9p8p6---8--8---|
|-9-11-11-11--11-11-11-------------------------------------9-------9-9--9---|
|---------------------------------------------------------------------------|
|---------------------------------------------------------------------------|


  PM-------------------------------------------|     PM    PM       PM-------------------|      PM
|----------------------------------------------------------------------------------------|
|----------------------------------------------------------------------------------------|
|-------------------------------------------------9----9S8---[8]S9----9S11----[11]S9-----|
|-9-11-11-11--11-11-11-9-11-11-11--11-11-11-11-11---11-----9-------11------13--------11--|
|----------------------------------------------------------------------------------------|
|----------------------------------------------------------------------------------------|


  PM-------------------------------------------------------------------------------------|
|-------------------------------------------------------------------18-----17-----15-----|
|----------------------12--12--12--12--9-9-9-9-9-9------------------21b23--20b22--18b20--|
|-----------------------9---9---8---9--9-9-9-9-9-9--9p8p6---9p8p6------------------------|
|-9-11-11-11--11-11-11------------------------------------9-------9----------------------|
|----------------------------------------------------------------------------------------|
|----------------------------------------------------------------------------------------|


           PM--|
|--------------------------------------11p9h11p9----9---------------------------------|
|-9b9.5-------------12b14-------12b14------------12---12p9----9------------11---------|
|-9b9.5----------------------------------------------------11---12p11p9----11----[9]--|
|---------11-9-11-------------------------------------------------------11----11------|
|-------------------------------------------------------------------------------------|
|-------------------------------------------------------------------------------------|


   PM---|     PM  PM  PM
|-----------------------------------------4---4-5---4---4------------|
|---------------------------4-5---4--7b9----7-----7---7---4---4------|
|----------9----8---6---4-6-----6---------------------------6---6----|
|--------------------------------------------------------------------|
|-11-11-11---11---9---7----------------------------------------------|
|--------------------------------------------------------------------|


|-----------------------------------|
|-[10]b12-----------10--9-----------|
|--------------------------11b13----|
|-----------------------------------|
|-----------------------------------|
|-----------------------------------|


Gtr 3
|---------9-----------------------------------9---12b14---12--11--10--9h10p9----------|
|-------9---12p9----9-----------------------9---9----------------------------12b14----|
|-11b13----------11---12p11p9----11----9h10-------------------------------------------|
|-----------------------------11----11------------------------------------------------|
|-------------------------------------------------------------------------------------|
|-------------------------------------------------------------------------------------|


|-------------12---12----------12-------------------------12------15----15h17h18p17p15h17----15h16----|
|-------12-14-12------15p12-------------------14-------------/17-----17-------------------17-------17-|
|-12-13---------------------14----15p14p12----14----12h13---------------------------------------------|
|------------------------------------------14----14---------------------------------------------------|
|-----------------------------------------------------------------------------------------------------|
|-----------------------------------------------------------------------------------------------------|


                                                                     PM---|
|----------------------------------------------------------------------------------|
|-15-15-14-12--12-14-14-15-15-14-12--12-14-14-15-15-14-12--12----------------------|
|-16-16-14-12--12-14-14-16-16-14-12--12-14-14-16-16-14-12--12-14-------14----12----|
|-------------------------------------------------------------------14----14-------|
|----------------------------------------------------------------------------------|
|----------------------------------------------------------------------------------|


|--------------------------------------------------------------17-16----|
|-----------------------------------------------------16-17-19----------|
|----------12--11-------------12-------------15-16-18-------------------|
|-13p12--------------13p12----------14h16h18----------------------------|
|-------14-----------------14-------------------------------------------|
|-----------------------------------------------------------------------|


|-----21b22--21---19--18--17h18p17--------------------19---------------------------|
|-17-------------------------------20p17----17-19b20-----19b20r19p17-20p17--17\----|
|----------------------------------------18----------------------------------------|
|----------------------------------------------------------------------------------|
|----------------------------------------------------------------------------------|
|----------------------------------------------------------------------------------|


Repeat Verse
Repeat Chorus


Gtr 1, Gtr 2 accentuates
  PM|   PM|   PM    PM|
|------------------------------------------------------------------------|
|------------------------------------------------------------------------|
|------------------------------------------------------------------------|
|---------------8S7------------------------------------------------------|
|-----7-----8---6S5-----3--3----9p7---10-9-----9p7---10-9-----9p7---10-9-|
|-0-5---0-6---0-----0-0-1--1--7-----7-------7------7--------7-----7------|


Both Gtrs
     PM  PM|   PM    PM|       PM|   PM|   PM    PM|
|---------------------------------------------------------------|
|---------------------------------------------------------------|
|---------------------------------------------------------------|
|----------------8S7-------------------------8S7----------------|
|------7-----8---6S5-----3--3------7-----8---6S5-----3--5--6----|
|-0--5---0-6---0-----0-0-1--1--0-5---0-6---0-----0-0-1--3--4----|


Gtr 1
  PM|   PM|   PM
|--------------------------------------------------------|
|--------------------------------------------------------|
|-----------------------------4-3-1----------------------|
|---------------8S7-----------------4-3-1----------------|
|-----7-----8---6S5-----3--3--------------4-3-1----------|
|-0-5---0-6---0-----0-0-1--1--------------------4-2-2----|


Gtr 2
  PM|   PM|   PM    PM|
|--------------------------------------------------------------------|
|--------------------------------------------------------------------|
|-----------------------------16-15-13-------------------------------|
|---------------8S7--------------------16-15-13----------------------|
|-----7-----8---6S5-----3--3--------------------16-15-13-------------|
|-0-5---0-6---0-----0-0-1--1-----------------------------16-14-14----|

Annihilator - Sixes And Sevens
Tuning - E A D G B E


Gtrs 2 & 3
|---|---------0-0-----------------0-0-------0-0-----------------0-0----|
|---|------11-----11-----------11-----11--------11-----------11--------|
|---|---10-----------10-----10-----------10--------10-----10-----------|
|-8-|-8-----------------8-8---------------------------8-8--------------|
|---|------------------------------------------------------------------|
|---|------------------------------------------------------------------|


Gtr 1
play twice
|---|--------------------------|
|---|--------------------------|
|---|--------------------------|
|---|--------------------------|
|-8-|-8----------------4--4----|
|-6-|-6----------------2--2----|


|-----------------------------------|
|-----------------------------------|
|-----------------------------------|
|---------------------6--5--3-------|
|-2--2----------------4--3--1--4----|
|-0--0-------------------------2----|


Gtrs 2 & 3
play twice
|---|---------0-0-----------------0-0---------------5-5-------------0-0--------|
|---|------11-----11-----------11-----11----------7-----7---------7-----7------|
|---|---10-----------10-----10-----------10-----6---------6-----6---------6----|
|-8-|-8-----------------8-8-----------------4-4-------------4-4----------------|
|---|--------------------------------------------------------------------------|
|---|--------------------------------------------------------------------------|


|---------3-3----------|
|-------5-----5--------|
|-----4---------4------|
|-2-2-------------2----|
|----------------------|
|----------------------|


Gtr 1
|---------|
|---------|
|---------|
|---------|
|-8--8----|
|-6--6----|


Gtr 2
|-------------0-0-------0-0------------|
|----------11-----11--------11---------|
|-------10-----------10--------10------|
|-8-8-8---------------------------8----|
|--------------------------------------|
|--------------------------------------|


Both Gtrs
              PM----------|              PM----------|     PM---------------------------------|                       PM|   PM
|---------------------------------------------------------------------------------------------|
|---------------------------------------------------------------------------------------------|
|-----10---10-----------------------------------------------------9-----10--------------------|
|-0-8---------8-0---------------------------------------------------7-0----8-0----------------|
|-----------------9-7-0-----5-----5--5-----------------5-5-----5---------------9-7-0-----5----|
|-----------------------6-6---6-5-3--3---0-3-6-5-0-3-5-----5-3-----------------------6-6---3--|


Both Gtrs
play 4 times
  PM--------------------------------|    PM|    PM---------|
|----------------------------------------------------------|
|----------------------------------------------------------|
|----------------------------------------------------------|
|----------------------------------------------------------|
|-------------------------------------1------8------1------|
|-0--0-0-0--0-0-0-0-0-0-0--0-0-0--0-0-3--0-0-6--0-0-3------|


Gtr 1
play twice
      PM--------|                 PM|    PM--------|    PM-------|
|----------------------------------------------------------------|
|----------------------------------------------------------------|
|----------------------------------------------------------------|
|----------------------------------------------------------------|
|-----------------------12------------1--------------1-----------|
|-3h5-0-0-0-0-0-0-10-11-------3h5-0-0-3--0-0-0-0-0-0-3--0-0------|


      PM-------------|            PM---------------|
|--------------------------------------------------|
|--------------------------------------------------|
|--------------------------------------------------|
|----------------------------------------3---------|
|-----------------------12------------1--1--1------|
|-3h5-0-0-0-0-0-0-10-11-------3h5-0-0-3-----3------|


Gtr 2
play twice
        PM-------------|              PM|    PM--------|    PM-------|
|--------------------------------------------------------------------|
|--------------------------------------------------------------------|
|--------------------------------------------------------------------|
|--------------------------------------------------------------------|
|-10h12-------------------12----10h12-----1--------------1-----------|
|-------0-0-0-0-0-0-10-11-------------0-0-3--0-0-0-0-0-0-3--0-0------|


        PM-------------|              PM---------------|
|------------------------------------------------------|
|------------------------------------------------------|
|------------------------------------------------------|
|--------------------------------------------3---------|
|-10h12-------------------12----10h12-----1--1--1------|
|-------0-0-0-0-0-0-10-11-------------0-0-3-----3------|


Both Gtrs
|----------------------------|
|
Добавлено: 09.05.2012
Другие материалы по этой песне:
  • Аккорды и текст

Страница создана 09.05.2012
http://primanota.ru/annihilator/never-neverland-album-chords.htm
Привет, Гость.
Предлагаем пройти революционный курс по гитаре.
Подарок от PrimaNota.Ru, забирай!