PrimaNota.ru - самый крупный в мире бесплатный архив песенных текстов, аккордов, табулатур и нот


Annihilator - I Want - текст песни, таба, видео

Регистрация Запомнить меня
Войти через:  Facebook Google Twitter Vk Yandex Mail.ru

Annihilator - I Want - текст песни, таба, видео

Печатать
Просмотров: 147
Авторы музыки: Jeff Waters
Авторы текста: Jeff Waters
Annihilator - I Want

tabbed by ol753
www.annihilatormetal.com
ol753_357lo@yahoo.co.uk

Tuning - E A D B G E


Gtr 1
play 4 times
|---------------|
|---------------|
|-2--------1----|
|-2--------1----|
|---------------|
|---------------|


Gtr 2
play 4 times
  PM----|       PM--------|      PM------|     PM--------|
|-----------------------------------------------------------------|
|-----------------------------------------------------------------|
|-----------------------------------------------------------------|
|-----------4S3-------------4S3------------4S3-------------4S3----|
|-----------2S1-------------2S1------------2S1-------------2S1----|
|-2-0-1-2-0-----0-2-0-1-2-0------2-0-1-2-0-----0-2-0-1-2-0--------|


Both Gtrs
play twice, Gtr 3 Lead (to be added)
  PM------------------------------------------------------------|
|--------------------------------------------------------------------|
|--------------------------------------------------------------------|
|--------------------------------------------------------------------|
|--------------------------------------------------------------------|
|-2-2-2-2-2-2-2-2-2-2-2-2-2-2-2-2-1-1-1-1-1-1-1-1-1-1-1-1-1-1-1-1----|
|--------------------------------------------------------------------|


Both Gtrs
play twice
|--------------------------------------------------------------------|
|--------------------------------------------------------------------|
|--------------------------------------------------------------------|
|--------------------------------------------------------------------|
|-2-2-5p2-2-5p2-2-5p2-2-5p2-2-5p2-1-1-4p1-1-4p1-1-4p1-1-4p1-1-4p1----|
|--------------------------------------------------------------------|


Gtr 1
play 4 times
|---------------|
|---------------|
|-2--------1----|
|-2--------1----|
|---------------|
|---------------|


Gtr 2
play 4 times
  PM----|       PM--------|      PM------|     PM--------|
|-----------------------------------------------------------------|
|-----------------------------------------------------------------|
|-----------------------------------------------------------------|
|-----------4S3-------------4S3------------4S3-------------4S3----|
|-----------2S1-------------2S1------------2S1-------------2S1----|
|-2-0-1-2-0-----0-2-0-1-2-0------2-0-1-2-0-----0-2-0-1-2-0--------|


Both Gtrs
play twice, Gtr 3 Lead (to be added)
  PM------------------------------------------------------------|
|--------------------------------------------------------------------|
|--------------------------------------------------------------------|
|--------------------------------------------------------------------|
|--------------------------------------------------------------------|
|-2-2-2-2-2-2-2-2-2-2-2-2-2-2-2-2-1-1-1-1-1-1-1-1-1-1-1-1-1-1-1-1----|
|--------------------------------------------------------------------|


Both Gtrs
play twice
|--------------------------------------------------------------------|
|--------------------------------------------------------------------|
|--------------------------------------------------------------------|
|--------------------------------------------------------------------|
|-2-2-5p2-2-5p2-2-5p2-2-5p2-2-5p2-1-1-4p1-1-4p1-1-4p1-1-4p1-1-4p1----|
|--------------------------------------------------------------------|


Both Gtrs
play twice
  PM------|     PM--------|     PM--------|     PM--------|     PM
|--------------------------------------------------------------------|
|--------------------------------------------------------------------|
|--------------------------------------------------------------------|
|-----------4S3-------------4S3-------------4S3-------------4S3------|
|-----------2S1-------------2S1-------------2S1-------------2S1------|
|-2-0-1-2-0-----0-2-0-1-2-0-----0-2-0-1-2-0-----0-2-0-1-2-0-----0----|


Gtr 1
play 4 times, Gtr 3 Lead (to be added)
|---------------|
|---------------|
|-2--------1----|
|-2--------1----|
|---------------|
|---------------|


Gtr 2
play 4 times
  PM----|       PM--------|      PM------|     PM--------|
|-----------------------------------------------------------------|
|-----------------------------------------------------------------|
|-----------------------------------------------------------------|
|-----------4S3-------------4S3------------4S3-------------4S3----|
|-----------2S1-------------2S1------------2S1-------------2S1----|
|-2-0-1-2-0-----0-2-0-1-2-0------2-0-1-2-0-----0-2-0-1-2-0--------|


Both Gtrs
play twice, Gtr 3 Lead (to be added)
  PM------------------------------------------------------------|
|--------------------------------------------------------------------|
|--------------------------------------------------------------------|
|--------------------------------------------------------------------|
|--------------------------------------------------------------------|
|-2-2-2-2-2-2-2-2-2-2-2-2-2-2-2-2-1-1-1-1-1-1-1-1-1-1-1-1-1-1-1-1----|
|--------------------------------------------------------------------|


Both Gtrs
play twice
|--------------------------------------------------------------------|
|--------------------------------------------------------------------|
|--------------------------------------------------------------------|
|--------------------------------------------------------------------|
|-2-2-5p2-2-5p2-2-5p2-2-5p2-2-5p2-1-1-4p1-1-4p1-1-4p1-1-4p1-1-4p1----|
|--------------------------------------------------------------------|


Both Gtrs
play 4 times
  PM------|     PM--------|     PM--------|     PM--------|     PM
|--------------------------------------------------------------------|
|--------------------------------------------------------------------|
|--------------------------------------------------------------------|
|-----------4S3-------------4S3-------------4S3-------------4S3------|
|-----------2S1-------------2S1-------------2S1-------------2S1------|
|-2-0-1-2-0-----0-2-0-1-2-0-----0-2-0-1-2-0-----0-2-0-1-2-0-----0----|


Gtr 1
play twice, Gtr 3 Lead (to be added)
  PM------------------------------------------------------------|
|--------------------------------------------------------------------|
|--------------------------------------------------------------------|
|--------------------------------------------------------------------|
|--------------------------------------------------------------------|
|--------------------------------------------------------------------|
|-2-2-0-2-2-0-2-0-2-2-0-2-2-0-2-0-2-2-0-2-2-0-2-0-2-2-0-2-2-0-2-0----|


Gtr 2
play twice
|---------------|
|---------------|
|-2--------1----|
|-2--------1----|
|---------------|
|---------------|


Both Gtrs
  PM------------------------------------------------------------|
|--------------------------------------------------------------------|
|--------------------------------------------------------------------|
|--------------------------------------------------------------------|
|--------------------------------------------------------------------|
|--------------------------------------------------------------------|
|-4-4-2-4-4-2-4-2-4-4-2-4-4-2-4-2-4-4-2-4-4-2-4-2-4-4-2-4-4-2-4-2----|


Gtr 2
|---------------|
|---------------|
|-4--------1----|
|-4--------3----|
|---------------|
|---------------|


Gtr 1
  PM----------------------------|                       PM----|
|-----------------------------------------------------------------|
|-----------------------------------------------------------------|
|-----------------------------------------------------------------|
|-------------------------------------------------9--9------------|
|---------------------------------9-9-9-9-9-9-9-9-7--7------------|
|-6-6-6-6-6-6-6-6-6-6-6-6-6-6-6-6-7-7-7-7-7-7-7-7-------\-\-\-\---|


Gtr 2
|---------------|
|---------------|
|-6--------7----|
|-6--------7----|
|---------------|
|---------------|


Both Gtrs
play 4 times
  PM-------------------------------------------------|
|--------------------------------------------------------------|
|--------------------------------------------------------------|
|--------------------------------------------------------------|
|-------------------------------------------------------4S3----|
|-------------------------------------------------------2S1----|
|-2-2-0-2--0-2-0-2-2-0-2--0-2-0-2-2-0-2--0-2-0-2-2-0-2---------|


Both Gtrs
  PM--------------------------------------------------------|
|----------------------------------------------------------------|
|----------------------------------------------------------------|
|----------------------------------------------------------------|
|----------------------------------------------------------------|
|----------------------------------------------------------------|
|-4-4-2-4--2-4-2-4-4-2-4--2-4-2-4-4-2-4--2-4-2-4-4-2-4--2-4-2----|


  PM----------------------------|                       PM----|
|-----------------------------------------------------------------|
|-----------------------------------------------------------------|
|-----------------------------------------------------------------|
|-------------------------------------------------9--9------------|
|---------------------------------9-9-9-9-9-9-9-9-7--7------------|
|-6-6-6-6-6-6-6-6-6-6-6-6-6-6-6-6-7-7-7-7-7-7-7-7-------\-\-\-\---|


Gtr 1
play twice
      PM    PM    PM    PM            PM    PM    PM    PM
|------------------------------------------------------------------|
|------------------------------------------------------------------|
|------------------------------------------------------------------|
|-----------------------------3S4-----------------------------0----|
|-----------------------------1S2---------------------------1------|
|-2p0-0-2p0-0-2p0-0-2p0-0-2p0-----2p0-0-2p0-0-2p0-0-2p0-0-3--------|


Both Gtrs
play twice
      PM    PM    PM    PM            PM    PM    PM    PM
|------------------------------------------------------------------|
|------------------------------------------------------------------|
|------------------------------------------------------------------|
|-----------------------------3S4-----------------------------0----|
|-----------------------------1S2---------------------------1------|
|-2p0-0-2p0-0-2p0-0-2p0-0-2p0-----2p0-0-2p0-0-2p0-0-2p0-0-3--------|


Both Gtrs
      PM    PM    PM    PM            PM    PM    PM
|-----------------------------------------------------------------|
|-----------------------------------------------------------------|
|-----------------------------------------------------------------|
|-----------------------------3S4-------------------------0--0----|
|-----------------------------1S2-------------------------1--1----|
|-2p0-0-2p0-0-2p0-0-2p0-0-2p0-----2p0-0-2p0-0-2p0-0-2p0-0-3--3----|


Gtr 1
    PM      PM    PM    PM                        PM------------|
|--------------------------------------------------------------------|
|--------------------------------------------------------------------|
|--------------------------------------------------------------------|
|-----------------------------3S4-----------------4-5-4-5-4-5-4-5----|
|-----------------------------1S2------------------------------------|
|-2p0-0-2p0-0-2p0-0-2p0-0-2p0-----2p0-0-2p0-0-2p0--------------------|


Gtr 2
    PM      PM    PM    PM                        PM------------|
|--------------------------------------------------------------------|
|--------------------------------------------------------------------|
|--------------------------------------------------------------------|
|-----------------------------3S4-----------------8-9-8-9-8-9-8-9----|
|-----------------------------1S2------------------------------------|
|-2p0-0-2p0-0-2p0-0-2p0-0-2p0-----2p0-0-2p0-0-2p0--------------------|


Both Gtrs
play twice
      PM    PM    PM    PM            PM    PM    PM    PM
|------------------------------------------------------------------|
|------------------------------------------------------------------|
|------------------------------------------------------------------|
|-----------------------------3S4-----------------------------0----|
|-----------------------------1S2---------------------------1------|
|-2p0-0-2p0-0-2p0-0-2p0-0-2p0-----2p0-0-2p0-0-2p0-0-2p0-0-3--------|


      PM    PM    PM    PM            PM    PM    PM
|-----------------------------------------------------------------|
|-----------------------------------------------------------------|
|-----------------------------------------------------------------|
|-----------------------------3S4-------------------------0--0----|
|-----------------------------1S2-------------------------1--1----|
|-2p0-0-2p0-0-2p0-0-2p0-0-2p0-----2p0-0-2p0-0-2p0-0-2p0-0-3--3----|


Both Gtrs
play twice, Gtr 3 Lead (to be added)
  PM------------------------------------------------------------|
|--------------------------------------------------------------------|
|--------------------------------------------------------------------|
|--------------------------------------------------------------------|
|--------------------------------------------------------------------|
|-2-2-2-2-2-2-2-2-2-2-2-2-2-2-2-2-1-1-1-1-1-1-1-1-1-1-1-1-1-1-1-1----|
|--------------------------------------------------------------------|


Both Gtrs
play twice
|--------------------------------------------------------------------|
|--------------------------------------------------------------------|
|--------------------------------------------------------------------|
|--------------------------------------------------------------------|
|-2-2-5p2-2-5p2-2-5p2-2-5p2-2-5p2-1-1-4p1-1-4p1-1-4p1-1-4p1-1-4p1----|
|--------------------------------------------------------------------|


Both Gtrs
play 4 times
  PM------|     PM--------|     PM--------|     PM--------|     PM
|--------------------------------------------------------------------|
|--------------------------------------------------------------------|
|--------------------------------------------------------------------|
|-----------4S3-------------4S3-------------4S3-------------4S3------|
|-----------2S1-------------2S1-------------2S1-------------2S1------|
|-2-0-1-2-0-----0-2-0-1-2-0-----0-2-0-1-2-0-----0-2-0-1-2-0-----0----|


Gtr 1
  PM------|     PM--------|     PM--------------|     
|-------------------------------------------------------|
|-------------------------------------------------------|
|-------------------------------------------------------|
|-----------4S3-------------4S3-------------------------|
|-----------2S1-------------2S1-----------2--4--5--4----|
|-2-0-1-2-0-----0-2-0-1-2-0-----0-2-0-1-2-0--2--3--2----|


Gtr 2
            PM          PM     PM----|
|--------------------------------------------|
|--------------------------------------------|
|--------------------------------------------|
|--------------------------------------------|
|-4-----------4-----------4----2--4--5--4----|
|-2---------0-2---------0-2----0--2--3--2----|


Tablature Legend
----------------
 h   - hammer-on
 p   - pull-off
 b   - bend
 pb  - pre-bend
 r   - bend release (if no number after the r, then release immediately)
 /\  - slide into or out of (from/to "nowhere")
 s   - legato slide
 S   - shift slide
  - natural harmonic
[n]  - artificial harmonic
n(n) - tapped harmonic
 ~   - vibrato
 tr  - trill
 T   - tap
 TP  - trem. picking
 PM  - palm muting
\n/  - tremolo bar dip; n = amount to dip
 \n  - tremolo bar down
 n/  - tremolo bar up
/n\  - tremolo bar inverted dip
 =   - hold bend; also acts as connecting device for hammers/pulls
 <>  - volume swell (louder/softer)
 x   - on rhythm slash represents muted slash
 o   - on rhythm slash represents single note slash

Misc Legend
-----------
 |  - bar
||  - double bar
||o - repeat start
o|| - repeat end
*|  - double bar (ending)
 :  - bar (freetime)
 $  - Segno
 &  - Coda
Tempo markers -  = BPM(8/16=s8/s16), where s8 = swing 8ths, s16 = swing 16ths

Добавлено: 02.03.2012
Другие материалы по этой песне:
  • Аккорды и текст

Страница создана 02.03.2012
http://primanota.ru/annihilator/i-want-chords.htm
Привет, Гость.
Предлагаем пройти революционный курс по гитаре.
Подарок от PrimaNota.Ru, забирай!