PrimaNota.ru - самый крупный в мире бесплатный архив песенных текстов, аккордов, табулатур и нот


Annihilator - Ligeia - текст песни, таба, видео

Регистрация Запомнить меня
Войти через:  Facebook Google Twitter Vk Yandex Mail.ru

Annihilator - Ligeia - текст песни, таба, видео

Печатать
Просмотров: 169
Авторы музыки: Jeff Waters
Авторы текста: Jeff Waters
Annihilator - Ligeia

tabbed by
ol753_357lo@yahoo.co.uk

Tuning - Drop 1/4 of a step


Both Gtrs
play 4 times
  PM----------------------------|
|-------------------------------|
|-------------------------------|
|-------------------------------|
|------------------7------------|
|------------------5--8--7------|
|-0--2--3-3--0--6-----6--5------|


Both Gtrs
play twice
  PM----------|           PM-----------------------|
|--------------------------------------------------|
|--------------------------------------------------|
|--------------------------------------------------|
|----------------7-----------------------7---------|
|-------------8--5--8--7--------------8--5---------|
|-0--2--3--0--6-----6--5--0--2--3--0--6----[5]-----|


Both Gtrs
play 3 times
  PM-----------------------------------|
|--------------------------------------|
|--------------------------------------|
|--------------------------------------|
|--------------------------------------|
|---------------------5-5--------------|
|-0-0-2-2-3-3-0-0-6-6-----6-6-5-5------|


4th time
  PM-----------------------------------|
|--------------------------------------|
|--------------------------------------|
|--------------------------------------|
|--------------------------------------|
|---------------------5-5--------------|
|-0-0-2-2-3-3-0-0-6-6-----\------------|


Both Gtrs
play 4 times
           PM|    PM|
|-----------------------------|
|-----------------------------|
|-----------------------------|
|------------------------7----|
|----7--5------5------8--5----|
|-0--5--3--0-0-3--0-0-6-------|


Both Gtrs
     PM-----------------------------------------------------------------|
|-----------------------------------------------------------------------|
|-----------------------------------------------------------------------|
|-----------------------------------------------------------------------|
|--7--------------------------------------------------------------------|
|--5-----3-3-4-4-4-4-----6-6-7-7-7-7-----5-5-6-6-6-6-----8-8-9-9-9-9----|
|----2-2-------------5-5-------------4-4-------------7-7----------------|


  PM----------------------------------------------------------------------|
|-------------------------------------------------------------------------|
|-------------------------------------------------------------------------|
|-------------------------------------------------------------------------|
|-------------------------------------------------------------------------|
|-----3-3-4-4-4-4-----6-6-7-7-7-7-----5-5-6-6-6-6-----8-8-9-9-9-9-9-9-9---|
|-2-2-------------5-5-------------4-4-------------7-7---------------------|


Both Gtrs
|---------------------------------------------|
|---------------------------------------------|
|---------------------------------------------|
|---------------------------------------------|
|----3--4-------6--7-------5--6-------8--9----|
|-2----------5----------4----------7----------|


|---------------------------------------------|
|---------------------------------------------|
|---------------------------------------------|
|------------------------------------10-11----|
|----3-[4]------6-[7]------5-[6]---9--8--9----|
|-2----------5----------4----------7----------|


Gtr 2
     PM----------|     PM--|   PM|     PM----------------------------|
|--------------------------------------------------------------------|
|--------------------------------------------------------------------|
|--------------------------------------------------------------------|
|----------------------------------------------------6-6-5-5---------|
|-5----------------8S7-------5-------4-----------5-5-4-4-3-3-4-4-----|
|-3--0-0-0-0-0-0-0-6S5-0-0-0-3-0-0-3---0-0-0-0-\-3-3---------2-2-----|

Gtr 1 enters
     PM----------|     PM--|   PM|     PM----------|
|--------------------------------------------------|
|--------------------------------------------------|
|--------------------------------------------------|
|--------------------------------------------------|
|-5----------------8S7-------5-------4-------------|
|-3--0-0-0-0-0-0-0-6S5-0-0-0-3-0-0-3---0-0-0-0-\---|


(bass fill)


Both Gtrs
     PM----------|     PM--|   PM|     PM----------------------------|
|--------------------------------------------------------------------|
|--------------------------------------------------------------------|
|--------------------------------------------------------------------|
|----------------------------------------------------6-6-5-5---------|
|-5----------------8S7-------5-------4-----------5-5-4-4-3-3-4-4-----|
|-3--0-0-0-0-0-0-0-6S5-0-0-0-3-0-0-3---0-0-0-0-\-3-3---------2-2-----|


     PM----------|     PM--|   PM|     PM----------------------------|
|--------------------------------------------------------------------|
|--------------------------------------------------------------------|
|--------------------------------------------------------------------|
|----------------------------------------------------6---5-----------|
|-5----------------8S7-------5-------4-----------5---4---3---4-------|
|-3--0-0-0-0-0-0-0-6S5-0-0-0-3-0-0-3---0-0-0-0-\-3-----------2-------|


|--------------------|
|--------------------|
|-------------<7>----|
|---------<7>--------|
|-----<7>------------|
|-<7>----------------|


Verse
Both Gtrs
play twice
     PM----------|                  PM--------------------------|
|---------------------------------------------------------------|
|---------------------------------------------------------------|
|------------------3S2------------------------------------------|
|------------------3S2----------------------------6-6-5-5-------|
|-5-----------------------------5-------------5-5-4-4-3-3-4-4---|
|-3--0-0-0-0-0-0-0------------0-3p0-0-0-0-0-\-3-3---------2-2---|

       PM---------|                  PM--------------------------|
|----------------------------------------------------------------|
|----------------------------------------------------------------|
|-------------------3S2------------------------------------------|
|-------------------3S2----------------------------6---5---------|
|--------------------------------5-------------5---4---3---4-----|
|-[3]---0-0-0-0-0-0------------0-3p0-0-0-0-0-\-3-----------2-----|


Chorus
Both Gtrs
play twice
  PM--------------------|     PM------------------------------------|
|-------------------------------------------------------------------|
|-------------------------------------------------------------------|
|-------------------------------------------------------------------|
|-------------------------------------------------------------------|
|-------------------------------------------------------------------|
|-3-0-0-0-6-0-0-0-5-0-0-0-5h6-0-0-3-0-0-0-6-0-0-0-5-0-5-6-8--8------|

  PM--------------------|     PM------------------------------------|
|-------------------------------------------------------------------|
|-------------------------------------------------------------------|
|-------------------------------------------------------------------|
|-------------------------------------------------------------------|
|-------------------------------------------------------------------|
|-3-0-0-0-6-0-0-0-5-0-0-0-5h6-0-0-3-0-0-0-6-0-0-0-5-0-5-6-9---------|


Both Gtrs
      PM----|     PM|   PM--|     PM-----------------------------------|
|----------------------------------------------------------------------|
|----------------------------------------------------------------------|
|----------------------------------------------------------------------|
|-----------------------------------------------------6-6-5-5----------|
|-5/----------4-------5-------7S8-------------4S5-5-5-4-4-3-3-4-4------|
|-3/--0-0-0-0---3-0-0-3-0-0-0-5S6-0-0-0-0-0-0-2S3-3-3---------2-2------|

      PM----|     PM|   PM--|     PM--------|     PM-------------------|
|----------------------------------------------------------------------|
|----------------------------------------------------------------------|
|----------------------------------------------------------------------|
|-----------------------------------------------------6-6-5-5----------|
|-5/----------4-------5-------7S8-------------4S5-5-5-4-4-3-3-4-4------|
|-3/--0-0-0-0---3-0-0-3-0-0-0-5S6-0-0-0-0-0-0-2S3-3-3---------2-2------|


|----------------------|
|----------------------|
|----------------------|
|----------------------|
|-5-5-5-5-------<7>----|
|-3-3-3-3---<7>--------|


Gtr 3
|-7-5-3------8-7-5-------10-8-7--------12-10-8---------12-10-8---------8----|
|-------7-5--------8-7-5--------10-8-7---------12-10-8---------12p10p8------|
|---------------------------------------------------------------------------|
|---------------------------------------------------------------------------|
|---------------------------------------------------------------------------|
|---------------------------------------------------------------------------|


|-10-8-7----7--------------------------------------------------|
|--------10---10-8-7-10-8-7---8-7-----7------------------------|
|---------------------------9-----9-7---9-7-5-9-7-5-----5------|
|---------------------------------------------------9-7---9----|
|--------------------------------------------------------------|
|--------------------------------------------------------------|


  PM--|       PM      PM
|---------------------------------------------------------------------|
|-------7h8p7---7h8p7---7h8p7---7-------------------------------------|
|-9-9-9-------9-------9-------9---9-7-6-9-7-6---7-6-------------5-7---|
|---------------------------------------------9-----9-----5-7-9-------|
|-----------------------------------------------------7-9-------------|
|---------------------------------------------------------------------|


|--------------7-8-10-8-7----8-7------7---------------------------------------------|
|---7-8-7-8-10------------10-----10-8---10-8-7-10-8-7---8-7-----7-------------------|
|-9---------------------------------------------------9-----9-7---9-7-6-9-7-6-------|
|-----------------------------------------------------------------------------9-9---|
|-----------------------------------------------------------------------------------|
|-----------------------------------------------------------------------------------|


|-11b13-*--| *tap harmonic
|----------|
|----------|
|----------|
|----------|
|----------|


Repeat Verse
Repeat Chorus


Gtr 1
play twice
        PM------------------------------|
|---------------------------------------|
|---------------------------------------|
|---------------------------------------|
|-8-7-5---------------------------------|
|-6-5-3----------------------8---5------|
|-------0-0-0--0-0-0--0-0-0--6---3------|


Both Gtrs
play twice
         PM---------------|        PM-----------------------|
|-----------------------------------------------------------|
|-----------------------------------------------------------|
|-----------------------------------------------------------|
|-8-7-5---------------------8-7-5---------------------------|
|-6-5-3---------------------6-5-3---------------------------|
|--------0-0-0--3-5-6-5-3-0--------0-0-0-0-3-5-6-5-3-0------|


Both Gtrs
play twice
                  PM-----|                  PM------------|
|---------------------------------------------------------|
|---------------------------------------------------------|
|---------------------------------------------------------|
|-9--10--7--9--5------------9--10--------8----------------|
|-7---8--5--7--3------------7---8--8--9--6----------------|
|-----------------0-0-0--0---------6--7-----0-0-0--0------|


Both Gtrs
  PM-------------------------------------------------------------------|
|----------------------------------------------------------------------|
|----------------------------------------------------------------------|
|----------------------------------------------------------------------|
|----------------------------------------------------------------------|
|-7-7-8-8-5-5-7-7-3-3-5-5---------7-7-8-8---------6-6-0-0--------------|
|-------------------------0-0-0-0---------6-6-7-7---------0-0-0-0------|


  PM----------------------------------------------------------------|
|-------------------------------------------------------------------|
|-------------------------------------------------------------------|
|-------------------------------------------------------------------|
|-------------------------------------------------------------------|
|-7-7-8-8-5-5-7-7-3-3-5-5---------7-7-8-8---------6-6-0-0-----------|
|-------------------------0-0-0-0---------6-6-7-7---------0--0------|


Gtr 1
|--------------------------------------------------|
|---10-9-----8-7-----6-5-----4-3-------------------|
|-7------7-5-----5-3-----3-1-----1-----------------|
|----------------------------------2----------2----|
|----------------------------------0----------0----|
|--------------------------------------------------|


Gtr 2
|-------------------------------------------------------|
|----13-12------11-10-----9-8-----7-6-------------------|
|-10-------10-8-------8-6-----6-4-----4-----------------|
|---------------------------------------2----------2----|
|---------------------------------------0----------0----|
|-------------------------------------------------------|


Both Gtrs
      PM
|---------------|
|---------------|
|---------------|
|-8S7---5--7----|
|-6S5-0-3--5----|
|---------------|


Both Gtrs
              PM            PM            PM|     PM
|-----------------------------------------------------------|
|-----------------------------------------------------------|
|-----------------------------------------------------------|
|-2----5---7----2----5---7----2----5---7------8S7---5--7----|
|-0--0-3p0-5--0-0--0-3p0-5--0-0--0-3p0-5--0-0-6S5-0-3--5----|
|-----------------------------------------------------------|


              PM
|-----------------------------------------------------------------|
|-----------------------------------------------------------------|
|-----------------------------------------------------------------|
|-2----5---7----2----5---7------7-7-7-7-7-7-7-7-5h7p5---5---------|
|-0--0-3p0-5--0-0--0-3p0-5--0-0-----------------------7---7-6-5---|
|-----------------------------------------------------------------|


Gtr 3
|--------------------------------------------------------------------------------------------------------|
|-5h8p5-------6h9p6-------7h10p7-------8h11p8---------9h12p9---------10h13p10----------11h14p11----------|
|-------7-5-7-------8-6-8--------9-7-9--------10-8-10--------11-9-11----------12-10-12----------13-13----|
|--------------------------------------------------------------------------------------------------------|
|--------------------------------------------------------------------------------------------------------|
|--------------------------------------------------------------------------------------------------------|


|----------------------------------------------------------------------------------------------|
|-12h15p12----------13h16p13----------14h17p14----------15h18p15----------16h19p16-------------|
|----------14-12-14----------15-13-15----------16-14-16----------17-15-17----------18-16-18----|
|----------------------------------------------------------------------------------------------|
|----------------------------------------------------------------------------------------------|
|----------------------------------------------------------------------------------------------|


|--------17----17---------------------------------------------------|
|-20b22-----20----20p17----17-------------------17----19------------|
|-----------------------19----20p19p17----19----17----19----[17]----|
|--------------------------------------19----19----19----17---------|
|-------------------------------------------------------------------|
|-------------------------------------------------------------------|


Both Gtrs
play twice
             PM            PM            PM|     PM
|-----------------------------------------------------------|
|-----------------------------------------------------------|
|-----------------------------------------------------------|
|-2----5---7----2----5---7----2----5---7------8S7---5--7----|
|-0--0-3p0-5--0-0--0-3p0-5--0-0--0-3p0-5--0-0-6S5-0-3--5----|
|-----------------------------------------------------------|


Both Gtrs
|------|
|------|
|------|
|-2----|
|-0----|
|------|


Both Gtrs
      PM
|------------------|
|------------------|
|------------------|
|-8S7---5--7--5----|
|-6S5-0-3--5--3----|
|------------------|


Both Gtrs
     PM|      PM|        PM|
|----------------------------------------------|
|----------------------------------------------|
|-7------12--------7---------------------------|
|-9------15-------10---------15----------15----|
|-7------12--------7---------12----------12----|
|----0-0------0-0--------0-0-------------------|


Both Gtrs
  PM-------------------------------------------------------------------|
|----------------------------------------------------------------------|
|----------------------------------------------------------------------|
|----------------------------------------------------------------------|
|----------------------------------------------------------------------|
|-5-5-5-5-6-6-6-6-3-3-3-3-5-5-5-5-5-5-5-5-6-6-6-6-3-3-3-3-8-8-8-8------|
|----------------------------------------------------------------------|


Gtr 1
  PM-----------------------------------------------------------------|
|--------------------------------------------------------------------|
|--------------------------------------------------------------------|
|--------------------------------------------------------------------|
|--------------------------------------------------------------------|
|-5-5-5-5-6-6-6-6-3-3-3-3-5-5-5-5-5-5-5-5-6-6-6-6-8-6-5--------------|
|-------------------------------------------------------8-6-5-3------|


Gtr 2
  PM---------------------------------------------------------------------|
|------------------------------------------------------------------------|
|------------------------------------------------------------------------|
|------------------------------------------------------------------------|
|------------------------------------------------------------------------|
|-5-5-5-5-6-6-6-6-3-3-3-3-5-5-5-5-8-8-8-8-10-10-10-10-8-6-5--------------|
|-----------------------------------------------------------8-6-5-3------|


Both Gtrs, Gtr 3 Lead (to be added)
        PM|       PM------|    PM|       PM|       PM|       PM--------|
|----------------------------------------------------------------------|
|----------------------------------------------------------------------|
|----------------------------------------------------------------------|
|-7--8------5--7------/-3-\--------3--5------7--8------5--7------| /3\-| triplets
|-5--6--6-6-3--5--5-5-0-0-0-3------1--3--3-3-5--6--6-6-3--5--5-5-------|
|---------------------------1--1-1-------------------------------------|


|----------------|
|----------------|
|----------------|
|-7--8--5--10----|
|-5--6--3---8----|
|----------------|


        PM|       PM------|    PM|       PM|       PM|       PM--------|
|----------------------------------------------------------------------|
|----------------------------------------------------------------------|
|----------------------------------------------------------------------|
|-7--8------5--7------/-3-\--------3--5------7--8------5--7------| /3\-| triplets
|-5--6--6-6-3--5--5-5-0-0-0-3------1--3--3-3-5--6--6-6-3--5--5-5-------|
|---------------------------1--1-1-------------------------------------|


|----------------|
|----------------|
|----------------|
|-7--8--5--10----|
|-5--6--3---8----|
|-5--6--3---8----|


Gtr 3
|-10-13-17-13-10-12-13-10-12----10-12----------12-10-13-17-13-10-12-13-10-12----10-12----------12----|
|----------------------------13-------13-10-13-------------------------------13-------13-10-13-------|
|----------------------------------------------------------------------------------------------------|
|----------------------------------------------------------------------------------------------------|
|----------------------------------------------------------------------------------------------------|
|----------------------------------------------------------------------------------------------------|


|-10-13-17-13-10-12-13-10-12----10-12-------12----------------------------------------------|
|----------------------------13-------13-10----13-10----12----12-10-------12----------------|
|----------------------------------------------------13----13-------13-12----13-12-10-12----|
|-------------------------------------------------------------------------------------------|
|-------------------------------------------------------------------------------------------|
|-------------------------------------------------------------------------------------------|


|-10-13-17-13-10-12-13-10-12----10-12----------12-10-13-17-13-10-12-13-10-12----10-12----------12----|
|----------------------------13-------13-10-13-------------------------------13-------13-10-13-------|
|----------------------------------------------------------------------------------------------------|
|----------------------------------------------------------------------------------------------------|
|----------------------------------------------------------------------------------------------------|
|----------------------------------------------------------------------------------------------------|


|-10-13-17-13-10-12-13-10-12----10-12-------12----------------------------------------------|
|----------------------------13-------13-10----13-10-13-13-13-12----10h13----10-------------|

* pick scrapes
|-------------------------------------------------------------------------------------------|
|-------------------------------------------------------------------------------------------|
|-------------------------------------------------------------------------------------------|


Both Gtrs
play twice
           PM|          PM|          PM|           PM|          PM|          PM|
|----------------------------------------------------------------------------------|
|----------------------------------------------------------------------------------|
|----------------------------------------------------------------------------------|
|----------------------------------------------------------------------------------|
|-7-7-7-8------5-5-5-7------7-7-7-8------5-5-5-10------7-7-7-8------5-5-5-7--------|
|-5-5-5-6--6-6-3-3-3-5--5-5-5-5-5-6--6-6-3-3-3--8--8-8-5-5-5-6--6-6-3-3-3-5--5-5---|


|----------------|
|----------------|
|----------------|
|----------------|
|-7--8--5--10----|
|-5--6--3---8----|


Both Gtrs
        PM|       PM------|    PM|       PM|       PM|       PM--------|
|----------------------------------------------------------------------|
|----------------------------------------------------------------------|
|----------------------------------------------------------------------|
|-7--8------5--7------/-3-\--------3--5------7--8------5--7------| /3\-| triplets
|-5--6--6-6-3--5--5-5-0-0-0-3------1--3--3-3-5--6--6-6-3--5--5-5-------|
|---------------------------1--1-1-------------------------------------|


|----------------|
|----------------|
|----------------|
|-7--8--5--10----|
|-5--6--3---8----|
|----------------|


Gtr 3
|----------------------------------------------------------------------------------------------------|
|----------------------------------------------------------------------------------------------------|
|----------14-16-17-16-14----16-14-------14----------------16-17-19-17-16----17-16-------16----------|
|-12-14-15----------------15-------15-14----15-14-14-15-17----------------17-------17-15----17-15----|
|----------------------------------------------------------------------------------------------------|
|----------------------------------------------------------------------------------------------------|


|----------------------------------------------------------------------------------------------------|
|----------------------------------------------------------------------------------------------------|
|----------14-16-17-16-14----16-14-------14----------------------------------------------------------|
|-12-14-15----------------15-------15-14----15-14-12-15-14-12----14-12-------12----------------------|

* pick scrapes
|----------------------------------------------------------------------------------------------------|


Both Gtrs
        PM|       PM------|    PM|       PM|       PM|       PM--------|
|----------------------------------------------------------------------|
|----------------------------------------------------------------------|
|----------------------------------------------------------------------|
|-7--8------5--7------/-3-\--------3--5------7--8------5--7------| /3\-| triplets
|-5--6--6-6-3--5--5-5-0-0-0-3------1--3--3-3-5--6--6-6-3--5--5-5-------|
|---------------------------1--1-1-------------------------------------|


Both Gtrs
|--------------------------|
|--------------------------|
|--------------------------|
|-7--8--5-11---------------|
|-5--6--3--9--------<7>----|
|-5--6--3--9----<7>--------|


Repeat Verse riff once


Both Gtrs
     PM----------|     PM--|   PM|     PM----------------------------|
|--------------------------------------------------------------------|
|--------------------------------------------------------------------|
|--------------------------------------------------------------------|
|----------------------------------------------------6-6-5-5---------|
|-5----------------8S7-------5-------4-----------5-5-4-4-3-3-4-4-----|
|-3--0-0-0-0-0-0-0-6S5-0-0-0-3-0-0-3---0-0-0-0-\-3-3---------2-2-----|


       PM----------|     PM--|   PM|     PM---------------------------|
|---------------------------------------------------------------------|
|---------------------------------------------------------------------|
|---------------------------------------------------------------------|
|-----------------------------------------------------6---5-----------|
|-------------------8S7-------5-------4-----------5---4---3---4-------|
|-[3]---0-0-0-0-0-0-6S5-0-0-0-3-0-0-3---0-0-0-0-\-3-----------2-------|


Repeat Chorus


Tablature Legend
----------------
 h   - hammer-on
 p   - pull-off
 b   - bend
 pb  - pre-bend
 r   - bend release (if no number after the r, then release immediately)
 /\  - slide into or out of (from/to "nowhere")
 s   - legato slide
 S   - shift slide
  - natural harmonic
[n]  - artificial harmonic
n(n) - tapped harmonic
 ~   - vibrato
 tr  - trill
 T   - tap
 TP  - trem. picking
 PM  - palm muting
\n/  - tremolo bar dip; n = amount to dip
 \n  - tremolo bar down
 n/  - tremolo bar up
/n\  - tremolo bar inverted dip
 =   - hold bend; also acts as connecting device for hammers/pulls
 <>  - volume swell (louder/softer)
 x   - on rhythm slash represents muted slash
 o   - on rhythm slash represents single note slash

Misc Legend
-----------
 |  - bar
||  - double bar
||o - repeat start
o|| - repeat end
*|  - double bar (ending)
 :  - bar (freetime)
 $  - Segno
 &  - Coda
Tempo markers -  = BPM(8/16=s8/s16), where s8 = swing 8ths, s16 = swing 16ths
Добавлено: 22.02.2012
Другие материалы по этой песне:

Страница создана 22.02.2012
http://primanota.ru/annihilator/ligeia-chords.htm
Привет, Гость.
Предлагаем пройти революционный курс по гитаре.
Подарок от PrimaNota.Ru, забирай!