PrimaNota.ru - самый крупный в мире бесплатный архив песенных текстов, аккордов, табулатур и нот


Annihilator - Battered - текст песни, таба, видео

Регистрация Запомнить меня
Войти через:  Facebook Google Twitter Vk Yandex Mail.ru

Annihilator - Battered - текст песни, таба, видео

Печатать
Просмотров: 205
Уроки эстрадного вокала в Санкт-Петербурге
Авторы музыки: Jeff Waters
Авторы текста: Jeff Waters
-------------------------------------------------------------------------------
			     Battered - Annihilator
-------------------------------------------------------------------------------
Tabbed by: Scum-bag Carrol
Email: S04114@stmcollege.org.uk

Tuning: D A D G B e




Gtr 1
play 4 times
  PM                 PM---------|                  PM---------|
|----------------------------------------------------------------|
|----------------------------------------------------------------|
|----------------------------------------------------------------|
|----------------------------------------------------------------|
|----6-5-3-6-5-3-6p5---------------6-5-3-6-5-3-6p5---------------|
|-0------------------0-0-0-0-0--0------------------0-0-0-0-0--0--|


Gtr 2
|------|
|------|
|------|
|-0----|
|-0----|
|-0----|

  PM
|---------------------|
|---------------------|
|---------------------|
|----0-------------0--|
|----0-------------0--|
|-0--0-------------0--|


Both Gtrs
play 4 times
  PM                 PM---------|                  PM---------|
|----------------------------------------------------------------|
|----------------------------------------------------------------|
|----------------------------------------------------------------|
|----------------------------------------------------------------|
|----6-5-3-6-5-3-6p5---------------6-5-3-6-5-3-6p5---------------|
|-0------------------0-0-0-0-0--0------------------0-0-0-0-0--0--|


Gtr 1
play 4 times
  PM                 PM----------|                  PM----------|
|------------------------------------------------------------------|
|------------------------------------------------------------------|
|------------------------------------------------------------------|
|------------------------------------------------------------------|
|----6-5-3-6-5-3-6p5---------------6-5-3-6-5-3-6p5-----------------|
|-0------------------0-0-0-0-0-0-0------------------0-0-0-0-0-0-0--|


Gtr 2
play 4 times
  PM                    PM----------|                     PM----------|
|-------------------------------------------------------------------------|
|-------------------------------------------------------------------------|
|-------------------------------------------------------------------------|
|-------------------------------------------------------------------------|
|----10-8-6-10-8-6-10p8----------------10-8-6-10-8-6-10p8-----------------|
|-0---------------------0-0-0-0-0-0-0---------------------0-0-0-0-0-0-0---|


Gtr 3
|--------|
|-<5>\n--|
|--------|
|--------|
|--------|
|--------|


Verse
Both Gtrs
play twice
  PM----------------------------------------------------------------|
|-------------------------------------------------------------------------------|
|-------------------------------------------------------------------------------|
|-------------------------------------------------------------------------------|
|-------------------------------------------------------------------------------|
|---------------------------------------------------------------------5--7--4---|
|-0-2-0-2-0-2-0-0-0-2-0-2-0-2-0-2-0-0-0-2-0-2-0-2-0-2-0-0-0-2-0-2-0-2-5--7--4---|


  PM----------------------------------------------------------------|
|-------------------------------------------------------------------------------|
|-------------------------------------------------------------------------------|
|-------------------------------------------------------------------------------|
|-------------------------------------------------------------------------------|
|---------------------------------------------------------------------5--4--3---|
|-0-2-0-2-0-2-0-0-0-2-0-2-0-2-0-2-0-0-0-2-0-2-0-2-0-2-0-0-0-2-0-2-0-2-5--4--3---|


Chorus
Both Gtrs
play 4 times
      PM  PM  PM      PM  PM  PM
|------------------------------------|
|------------------------------------|
|------------------------------------|
|------------------------------------|
|-0-6---6---6---3-0-6---6---6---3----|
|-0-6-0-6-0-6-0-3-0-6-0-6-0-6-0-3----|


Both Gtrs
play 4 times
  PM                 PM---------|                  PM---------|
|----------------------------------------------------------------|
|----------------------------------------------------------------|
|----------------------------------------------------------------|
|----------------------------------------------------------------|
|----6-5-3-6-5-3-6p5---------------6-5-3-6-5-3-6p5---------------|
|-0------------------0-0-0-0-0--0------------------0-0-0-0-0--0--|


Gtr 1
play 4 times
  PM                 PM----------|                  PM----------|
|------------------------------------------------------------------|
|------------------------------------------------------------------|
|------------------------------------------------------------------|
|------------------------------------------------------------------|
|----6-5-3-6-5-3-6p5---------------6-5-3-6-5-3-6p5-----------------|
|-0------------------0-0-0-0-0-0-0------------------0-0-0-0-0-0-0--|


Gtr 2
play 4 times
  PM                    PM----------|                     PM----------|
|-------------------------------------------------------------------------|
|-------------------------------------------------------------------------|
|-------------------------------------------------------------------------|
|-------------------------------------------------------------------------|
|----10-8-6-10-8-6-10p8----------------10-8-6-10-8-6-10p8-----------------|
|-0---------------------0-0-0-0-0-0-0---------------------0-0-0-0-0-0-0---|


Repeat Verse

Chorus 2
Both Gtrs
play 8 times
      PM  PM  PM      PM  PM  PM
|------------------------------------|
|------------------------------------|
|------------------------------------|
|------------------------------------|
|-0-6---6---6---3-0-6---6---6---3----|
|-0-6-0-6-0-6-0-3-0-6-0-6-0-6-0-3----|


Both Gtrs
play 6 times, Gtr 3 Lead (to be added)
|-----------------------------------------------------------------|
|-----------------------------------------------------------------|
|-----0-----0-----0-----0-------------0-----0-----0-----0---------|
|---1-----1-----1-----1-----1---1---1-----1-----1-----1-----------|
|-3-----1-----3-----1-----3---1---3-----1-----3-----1-----1--3----|
|---------------------------------------------------------1--3----|


Both Gtrs
play twice, Gtr 3 Lead (to be added)
  PM----------------------------------------------------------------|
|-------------------------------------------------------------------------------|
|-------------------------------------------------------------------------------|
|-------------------------------------------------------------------------------|
|-------------------------------------------------------------------------------|
|---------------------------------------------------------------------5--7--4---|
|-0-2-0-2-0-2-0-0-0-2-0-2-0-2-0-2-0-0-0-2-0-2-0-2-0-2-0-0-0-2-0-2-0-2-5--7--4---|


  PM----------------------------------------------------------------|
|-------------------------------------------------------------------------------|
|-------------------------------------------------------------------------------|
|-------------------------------------------------------------------------------|
|-------------------------------------------------------------------------------|
|---------------------------------------------------------------------5--4--3---|
|-0-2-0-2-0-2-0-0-0-2-0-2-0-2-0-2-0-0-0-2-0-2-0-2-0-2-0-0-0-2-0-2-0-2-5--4--3---|


Gtr 1
|--------------------------------------------------------------------|
|--------------------------------------------------------------------|
|--------------------------------------------------------------------|
|-------5-7-8-7-5---7-5-----5-----------5-7-8-7-5---7-5-----5--------|
|-5-7-8-----------8-----8-7---8-7-5-7-8-----------8-----8-7---8-7----|
|--------------------------------------------------------------------|


|------------------------------------------------------------------------------------------|
|------------------------------------------------------------------------------------------|
|------------------------------------------------------------------------------------------|
|---------8-10-11-10-8----10-8-------8---------------8-10-11-10-8----10-8-------8----------|
|-8-10-11--------------11------11-10---11-10-8-10-11--------------11------11-10---11-10----|
|------------------------------------------------------------------------------------------|


|----------------------------------------------------------------------------------------------------|
|----------------------------------------------------------------------------------------------------|
|----------------------------------------------------------------------------------------------------|
|----------12-14-15-14-12----14-12-------14----------------12-14-15-14-12----14-12-------12----------|
|-12-14-15----------------15-------15-14----15-14-12-14-15----------------15-------15-14----15-14----|
|----------------------------------------------------------------------------------------------------|


|----------------------------------------------------------------------------------------------------|
|----------------------------------------------------------------------------------------------------|
|----------------------------------------------------------------------------------------------------|
|----------11-13-14-13-11----13-11-------11----------------11-13-14-13-11----13-11-------11----------|
|-11-13-14----------------14-------14-13----14-13-11-13-14----------------14-------14-13----14-13----|
|----------------------------------------------------------------------------------------------------|


Gtr 2
|------------------------------------------------------------------------------------------|
|------------------------------------------------------------------------------------------|
|------------------------------------------------------------------------------------------|
|---------8-10-12-10-8----10-8-------8---------------8-10-12-10-8----10-8-------8----------|
|-8-10-12--------------12------12-10---12-10-8-10-12--------------12------12-10---12-10----|
|------------------------------------------------------------------------------------------|


|----------------------------------------------------------------------------------------------------|
|----------------------------------------------------------------------------------------------------|
|----------------------------------------------------------------------------------------------------|
|----------11-13-15-13-11----13-11-------11----------------11-13-15-13-11----13-11-------11----------|
|-11-13-15----------------15-------15-13----15-13-11-13-15----------------15-------15-13----15-13----|
|----------------------------------------------------------------------------------------------------|


|----------------------------------------------------------------------------------------------------|
|----------------------------------------------------------------------------------------------------|
|----------------------------------------------------------------------------------------------------|
|----------15-17-19-17-15----17-15-------15----------------15-17-19-17-15----17-15-------15----------|
|-15-17-19----------------19-------19-15----19-17-15-17-19----------------19-------19-17----19-17----|
|----------------------------------------------------------------------------------------------------|


|----------------------------------------------------------------------------------------------------|
|----------------------------------------------------------------------------------------------------|
|----------------------------------------------------------------------------------------------------|
|----------14-16-18-16-14----16-14-------14-18-------------14-16-18-16-14----16-14-------14----------|
|-14-16-18----------------18-------18-16-------16-14-16-18----------------18-------18-16----18-16----|
|----------------------------------------------------------------------------------------------------|


Both Gtrs
play twice
|----------------------------------------------------------------------------------------------------|
|----------------------------------------------------------------------------------------------------|
|----------------------------------------------------------------------------------------------------|
|----------------------------------------------------------------------------------------------------|
|----------11-13-14-13-11----13-11-------11----------------13-14-16-14-13----14-13-------13----------|
|-11-13-14----------------14-------14-13----14-13-13-14-16----------------16-------16-14----16-14----|


|----------------------------------------------------------------------------------------------------|
|----------------------------------------------------------------------------------------------------|
|----------------------------------------------------------------------------------------------------|
|----------------------------------------------------------------------------------------------------|
|----------14-16-18-16-14----16-14-------14----------------13-14-16-14-13----14-13-------13----------|
|-14-16-18----------------18-------18-16----18-16-13-14-16----------------16-------16-14----16-14----|


Gtr 1
                                           PM----------------------------|
|---------------------------------------------------------------------------|
|---------------------------------------------------------------------------|
|---------------------------------------------------------------------------|
|---------------------------------------------------------------------------|
|-----12--11---------10--9--------8--7-------6---5---4---3---4---5---6---7--|
|-11----------10--9---------8--7--------6--5---4---3---2---3---4---5---6----|


Gtr 2
                                                 PM----------------------------|
|----------------------------------------------------------------------------------|
|----------------------------------------------------------------------------------|
|----------------------------------------------------------------------------------|
|----------------------------------------------------------------------------------|
|-----15--14----------13--12----------11--10-------9---8---7---6---7---8---9---10--|
|-14----------13--12----------11--10----------9--8---7---6---5---6---7---8---9-----|


Both Gtrs
play 4 times
  PM                 PM---------|                  PM---------|
|----------------------------------------------------------------|
|----------------------------------------------------------------|
|----------------------------------------------------------------|
|----------------------------------------------------------------|
|----6-5-3-6-5-3-6p5---------------6-5-3-6-5-3-6p5---------------|
|-0------------------0-0-0-0-0--0------------------0-0-0-0-0--0--|


Repeat Verse


Chorus 2
Both Gtrs
play 8 times
      PM  PM  PM      PM  PM  PM
|------------------------------------|
|------------------------------------|
|------------------------------------|
|------------------------------------|
|-0-6---6---6---3-0-6---6---6---3----|
|-0-6-0-6-0-6-0-3-0-6-0-6-0-6-0-3----|


Gtr 3
joins 5th time
play 5 times
|--------------------------------------------------------|
|-7h10p7-------7h10p7-------7h10p7-------7h10p7----------|
|--------8-7-8--------8-7-8--------8-7-8--------8-7-8----|
|--------------------------------------------------------|
|--------------------------------------------------------|
|--------------------------------------------------------|


Both Gtrs
plays to fade
  PM----------------|
|------------------------|
|------------------------|
|------------------------|
|------------------------|
|------------------------|
|-0-2-0-2-0-2-0-0-0-2----|

Gtr 3
whammy bar things
play twice
|------------|
|-----<7>----|
|-<5>--------|
|------------|
|------------|
|------------|


Gtr 3
plays to fade, with whammy bar again.
|--------------------------------------------------------|
|-7h10p7-------7h10p7-------7h10p7-------7h10p7----------|
|--------8-7-8--------8-7-8--------8-7-8--------8-7-8----|
|--------------------------------------------------------|
|--------------------------------------------------------|
|--------------------------------------------------------|
Добавлено: 26.08.2013
Другие материалы по этой песне:
  • Аккорды и текст

Страница создана 29.05.2012
http://primanota.ru/annihilator/battered-chords.htm
Привет, Гость.
Предлагаем пройти революционный курс по гитаре.
Подарок от PrimaNota.Ru, забирай!