PrimaNota.ru - самый крупный в мире бесплатный архив песенных текстов, аккордов, табулатур и нот


Annihilator - City Of Ice - текст песни, таба, видео

Регистрация Запомнить меня
Войти через:  Facebook Google Twitter Vk Yandex Mail.ru

Annihilator - City Of Ice - текст песни, таба, видео

Печатать
Просмотров: 154
Авторы музыки: Jeff Waters, Randy Black
Авторы текста: Big John Bates, Jeff Waters
Annihilator - City Of Ice

tabbed by 
ol753_357lo@yahoo.co.uk

Tuning - E A D G B E


Both Gtrs
  PM|
|--------|
|--------|
|--------|
|--------|
|---7----|
|-0------|


Both Gtrs, Gtr 3 Lead (to be added)
       PM----------------------|      PM----------------------|
|------------------------------------------------------------------|
|------------------------------------------------------------------|
|------------------------------------------------------------------|
|-9--9---------------------------9--9------------------------------|
|-7--7---------------------------7--7------------------------------|
|------0-0-0-0-0-0-0-0-0-0-0-0-0------0-0-0-0-0-0-0-0-0-0-0-0-0----|


Gtr 1
       PM|     PM     PM     PM
|---------------------------------------------------------------|
|---------------------------------------------------------------|
|---------------------------------------------------------------|
|-6--6-----6-6---2--2---4--4---9--9-9-9-9-9-9-9-2-2-2-4--4-4----|
|-4--4-4-4-4-4-0-0--0-0-2--2-0-7--7-7-7-7-7-7-7-0-0-0-2--2-2----|
|---------------------------------------------------------------|


Gtr 2
       PM|     PM     PM     PM        PM
|-----------------------------------------------------------------|
|-----------------------------------10---10-9---------------------|
|------------------------------------9----9-9---------------------|
|-6--6-----6-6---2--2---4--4---9--------------9-9-2-2-2-4--4-4----|
|-4--4-4-4-4-4-0-0--0-0-2--2-0-7--7----7------7-7-0-0-0-2--2-2----|
|-----------------------------------------------------------------|


Verse
Both Gtrs
play twice
       PM|   PM--|     PM     PM     PM|   PM--|     PM     PM
|----------------------------------------------------------------|
|----------------------------------------------------------------|
|----------------------------------------------------------------|
|-9--9-----9-------9-9---9--9---9--9-----9-------9-9---9--9------|
|-7--7-----7-------7-7---7--7---7--7-----7-------7-7---7--7------|
|------0-0---0-0-0-----0------0------0-0---0-0-0-----0------0----|


Gtr 1
       PM|     PM     PM     PM
|---------------------------------------------------------------|
|---------------------------------------------------------------|
|---------------------------------------------------------------|
|-6--6-----6-6---2--2---4--4---9--9-9-9-9-9-9-9-2-2-2-4--4-4----|
|-4--4-4-4-4-4-0-0--0-0-2--2-0-7--7-7-7-7-7-7-7-0-0-0-2--2-2----|
|---------------------------------------------------------------|


Gtr 2
       PM|     PM     PM     PM        PM
|-----------------------------------------------------------------|
|-----------------------------------10---10-9---------------------|
|------------------------------------9----9-9---------------------|
|-6--6-----6-6---2--2---4--4---9--------------9-9-2-2-2-4--4-4----|
|-4--4-4-4-4-4-0-0--0-0-2--2-0-7--7----7------7-7-0-0-0-2--2-2----|
|-----------------------------------------------------------------|


Chorus
Both Gtrs
|------------------------------------------------------------|
|------------------------------------------------------------|
|------------------------------------------------------------|
|-6--6--6-6-6--6-6-6--6-6-5-4-2--2--2-2-2--2-2-2--2-2-4-5----|
|-4--4--4-4-4--4-4-4--4-4-3-2-0--0--0-0-0--0-0-0--0-0-2-3----|
|------------------------------------------------------------|


Gtr 1
|---------------------------------------------------------------|
|---------------------------------------------------------------|
|---------------------------------------------------------------|
|-6--6--6-6-6--6-6-6-6-6-6-6-6-4--4-4-4-4-4-4-4--4-4-4-4-4-4----|
|-4--4--4-4-4--4-4-4-4-4-4-4-4-2--2-2-2-2-2-2-2--2-2-2-2-2-2----|
|---------------------------------------------------------------|


Gtr 2
                                      PM            PM
|------------------------------------------------------------|
|-----------------------------------5---5-4-------5---5-4----|
|-----------------------------------4---4-4-------4---4-4----|
|-6--6--6-6-6--6-6-6-6-6-6-6-6-4-------------4---------------|
|-4--4--4-4-4--4-4-4-4-4-4-4-4-2--2---2------2--2---2--------|
|------------------------------------------------------------|


Both Gtrs
|------------------------------------------------------------|
|------------------------------------------------------------|
|------------------------------------------------------------|
|-6--6--6-6-6--6-6-6--6-6-5-4-2--2--2-2-2--2-2-2--2-2-2-2----|
|-4--4--4-4-4--4-4-4--4-4-3-2-0--0--0-0-0--0-0-0--0-0-0-0----|
|------------------------------------------------------------|


       PM--------|     PM|     PM
|------------------------------------------------------|
|------------------------------------------------------|
|------------------------------------------------------|
|------------------------------------------------------|
|-4--4---------------------------6--6-4-5-6-6-4-5-6----|
|-2--2-2-2-2-2-2-2-5p2-2-2-5p2-2-4--4-2-3-4-4-2-3-4----|


Both Gtrs, Gtr 3 Lead (to be added)
       PM----------------------|      PM----------------------|
|------------------------------------------------------------------|
|------------------------------------------------------------------|
|------------------------------------------------------------------|
|-9--9---------------------------9--9------------------------------|
|-7--7---------------------------7--7------------------------------|
|------0-0-0-0-0-0-0-0-0-0-0-0-0------0-0-0-0-0-0-0-0-0-0-0-0-0----|


Gtr 1
       PM|     PM     PM     PM
|---------------------------------------------------------------|
|---------------------------------------------------------------|
|---------------------------------------------------------------|
|-6--6-----6-6---2--2---4--4---9--9-9-9-9-9-9-9-2-2-2-4--4-4----|
|-4--4-4-4-4-4-0-0--0-0-2--2-0-7--7-7-7-7-7-7-7-0-0-0-2--2-2----|
|---------------------------------------------------------------|


Gtr 2
       PM|     PM     PM     PM        PM
|-----------------------------------------------------------------|
|-----------------------------------10---10-9---------------------|
|------------------------------------9----9-9---------------------|
|-6--6-----6-6---2--2---4--4---9--------------9-9-2-2-2-4--4-4----|
|-4--4-4-4-4-4-0-0--0-0-2--2-0-7--7----7------7-7-0-0-0-2--2-2----|
|-----------------------------------------------------------------|


Repeat Verse
Gtr 3 Lead (to be added)
Repeat Chorus


Both Gtrs
play twice
    PM|   PM    PM  PM|   PM    PM  PM|   PM    PM    PM--------------------|
|-------------------------------------------------------------------------------|
|-------------------------------------------------------------------------------|
|-------------------------------------------------------------------------------|
|-------------------------------------------------------------------------------|
|-2-----5---8S5---2-----5---5S7---2-----5---8S5---2-------7-7-7-7-2-2-2-2-2-2---|
|-0-0-0-3-0-6S3-0-0-0-0-3-0-3S5-0-0-0-0-3-0-6S3-0-0-0-0-0-----------------------|


    PM|   PM    PM  PM|   PM    PM  PM|   PM    PM  PM
|--------------------------------------------------------------------------------|
|--------------------------------------------------------------------------------|
|---------------------------------------------------------------------<5>--------|
|-----------------------------------------------------<7>-----<5>---------<5>----|
|-2-----5---8S5---2-----5---5S7---2-----5---8S5---2-------<7>-----<5>------------|
|-0-0-0-3-0-6S3-0-0-0-0-3-0-3S5-0-0-0-0-3-0-6S3-0-0-0----------------------------|


Both Gtrs
play twice
|------------------------------------------|
|------------------------------------------|
|------------------------------------------|
|------------------------------------------|
|-2---------------3---------5-5-5-5-5-3----|
|-0---------------1---------3-3-3-3-3-1----|


Gtr 1
|------------------------------------------|
|------------------------------------------|
|------------------------------------------|
|------------------------------------------|
|-2---------------3---------5-5-5-5-5-3----|
|-0---------------1---------3-3-3-3-3-1----|


Gtr 2
    PM|   PM    PM  PM|   PM    PM  PM|   PM    PM  PM
|--------------------------------------------------------------------|
|--------------------------------------------------------------------|
|--------------------------------------------------------------------|
|--------------------------------------------------------------------|
|-2-----5---8S5---2-----5---5S7---2-----5---8S5---2---5-5-5-5-5-3----|
|-0-0-0-3-0-6S3-0-0-0-0-3-0-3S5-0-0-0-0-3-0-6S3-0-0-0-3-3-3-3-3-1----|


Both Gtrs
    PM|   PM    PM  PM|   PM    PM  PM|   PM    PM  PM
|--------------------------------------------------------------------|
|--------------------------------------------------------------------|
|--------------------------------------------------------------------|
|--------------------------------------------------------------------|
|-2-----5---8S5---2-----5---5S7---2-----5---8S5---2---5-5-5-5-5-3----|
|-0-0-0-3-0-6S3-0-0-0-0-3-0-3S5-0-0-0-0-3-0-6S3-0-0-0-3-3-3-3-3-1----|


Both Gtrs
    PM|   PM    PM  PM|   PM    PM  PM|   PM    PM    PM--------------------|
|-------------------------------------------------------------------------------|
|-------------------------------------------------------------------------------|
|-------------------------------------------------------------------------------|
|-------------------------------------------------------------------------------|
|-2-----5---8S5---2-----5---5S7---2-----5---8S5---2-------7-7-7-7-2-2-2-2-2-2---|
|-0-0-0-3-0-6S3-0-0-0-0-3-0-3S5-0-0-0-0-3-0-6S3-0-0-0-0-0-----------------------|


    PM|   PM    PM  PM|   PM    PM  PM|   PM    PM  PM
|--------------------------------------------------------------------------------|
|--------------------------------------------------------------------------------|
|---------------------------------------------------------------------<5>--------|
|-----------------------------------------------------<7>-----<5>---------<5>----|
|-2-----5---8S5---2-----5---5S7---2-----5---8S5---2-------<7>-----<5>------------|
|-0-0-0-3-0-6S3-0-0-0-0-3-0-3S5-0-0-0-0-3-0-6S3-0-0-0----------------------------|


    PM|   PM    PM  PM|   PM    PM  PM|   PM    PM    PM--------------------|
|-------------------------------------------------------------------------------|
|-------------------------------------------------------------------------------|
|-------------------------------------------------------------------------------|
|-------------------------------------------------------------------------------|
|-2-----5---8S5---2-----5---5S7---2-----5---8S5---2-------7-7-7-7-2-2-2-2-2-2---|
|-0-0-0-3-0-6S3-0-0-0-0-3-0-3S5-0-0-0-0-3-0-6S3-0-0-0-0-0-----------------------|

    PM|   PM    PM  PM|   PM    PM  PM|   PM    PM
|---------------------------------------------------------------|
|---------------------------------------------------------------|
|---------------------------------------------------------------|
|---------------------------------------------------------------|
|-2-----5---8S5---2-----5---5S7---2-----5---8S5---2--2---2-2----|
|-0-0-0-3-0-6S3-0-0-0-0-3-0-3S5-0-0-0-0-3-0-6S3-0-0--0---0-0----|


Both Gtrs, Gtr 3 Lead (to be added)
|------------------------------------------------------------|
|------------------------------------------------------------|
|------------------------------------------------------------|
|-6--6--6-6-6--6-6-6--6-6-5-4-2--2--2-2-2--2-2-2--2-2-4-5----|
|-4--4--4-4-4--4-4-4--4-4-3-2-0--0--0-0-0--0-0-0--0-0-2-3----|
|------------------------------------------------------------|


Gtr 1
|---------------------------------------------------------------|
|---------------------------------------------------------------|
|---------------------------------------------------------------|
|-6--6--6-6-6--6-6-6-6-6-6-6-6-4--4-4-4-4-4-4-4--4-4-4-4-4-4----|
|-4--4--4-4-4--4-4-4-4-4-4-4-4-2--2-2-2-2-2-2-2--2-2-2-2-2-2----|
|---------------------------------------------------------------|


Gtr 2
                                      PM            PM
|------------------------------------------------------------|
|-----------------------------------5---5-4-------5---5-4----|
|-----------------------------------4---4-4-------4---4-4----|
|-6--6--6-6-6--6-6-6-6-6-6-6-6-4-------------4---------------|
|-4--4--4-4-4--4-4-4-4-4-4-4-4-2--2---2------2--2---2--------|
|------------------------------------------------------------|


Both Gtrs
|------------------------------------------------------------|
|------------------------------------------------------------|
|------------------------------------------------------------|
|-6--6--6-6-6--6-6-6--6-6-5-4-2--2--2-2-2--2-2-2--2-2-2-2----|
|-4--4--4-4-4--4-4-4--4-4-3-2-0--0--0-0-0--0-0-0--0-0-0-0----|
|------------------------------------------------------------|


       PM--------|     PM|     PM                             PM
|----------------------------------------------------------------|
|----------------------------------------------------------------|
|----------------------------------------------------------------|
|----------------------------------------------------------------|
|-4--4---------------------------6--6-4-5-6-6-4-5-6-6-4-5-6-6----|
|-2--2-2-2-2-2-2-2-5p2-2-2-5p2-2-4--4-2-3-4-4-2-3-4-4-2-3-4-4-0--|


|------------------------------------------------------------|
|------------------------------------------------------------|
|------------------------------------------------------------|
|-2--2--2-2-2--2-2-2--2-2-4-5-6--6--6-6-6--6-6-6--6-6-6-6----|
|-0--0--0-0-0--0-0-0--0-0-2-3-4--4--4-4-4--4-4-4--4-4-4-4----|
|------------------------------------------------------------|


|--------------------------------------------------------------|
|--------------------------------------------------------------|
|--------------------------------------------------------------|
|-4--4--4-4-4--4-4-4--4-4-4-4-2--2--2-2-2-2-2------------------|
|-2--2--2-2-2--2-2-2--2-2-2-2-0--0--0-0-0-0-0------------------|
|---------------------------------------------5-4-2-0-5-4-2----|


|------------------------------------------------------------|
|------------------------------------------------------------|
|------------------------------------------------------------|
|-2--2--2-2-2--2-2-2--2-2-4-5-6--6--6-6-6--6-6-6--6-6-6-6----|
|-0--0--0-0-0--0-0-0--0-0-2-3-4--4--4-4-4--4-4-4--4-4-4-4----|
|------------------------------------------------------------|


|--------------------------------------------------------------|
|--------------------------------------------------------------|
|--------------------------------------------------------------|
|-2--2--2-2-2--2-2-2--2-2-2-2----------------------------------|
|-0--0--0-0-0--0-0-0--0-0-0-0-3-----3-----3---3----3--3--3--3--|
|-----------------------------4-----4-----4---4----4--4--4--4--|


Repeat Verse
Gtr 3 Lead (to be added)


Chorus
Both Gtrs
play twice
|------------------------------------------------------------|
|------------------------------------------------------------|
|------------------------------------------------------------|
|-6--6--6-6-6--6-6-6--6-6-5-4-2--2--2-2-2--2-2-2--2-2-4-5----|
|-4--4--4-4-4--4-4-4--4-4-3-2-0--0--0-0-0--0-0-0--0-0-2-3----|
|------------------------------------------------------------|


Gtr 1
|---------------------------------------------------------------|
|---------------------------------------------------------------|
|---------------------------------------------------------------|
|-6--6--6-6-6--6-6-6-6-6-6-6-6-4--4-4-4-4-4-4-4--4-4-4-4-4-4----|
|-4--4--4-4-4--4-4-4-4-4-4-4-4-2--2-2-2-2-2-2-2--2-2-2-2-2-2----|
|---------------------------------------------------------------|


Gtr 2
                                      PM            PM
|------------------------------------------------------------|
|-----------------------------------5---5-4-------5---5-4----|
|-----------------------------------4---4-4-------4---4-4----|
|-6--6--6-6-6--6-6-6-6-6-6-6-6-4-------------4---------------|
|-4--4--4-4-4--4-4-4-4-4-4-4-4-2--2---2------2--2---2--------|
|------------------------------------------------------------|


Both Gtrs
|------------------------------------------------------------|
|------------------------------------------------------------|
|------------------------------------------------------------|
|-6--6--6-6-6--6-6-6--6-6-5-4-2--2--2-2-2--2-2-2--2-2-2-2----|
|-4--4--4-4-4--4-4-4--4-4-3-2-0--0--0-0-0--0-0-0--0-0-0-0----|
|------------------------------------------------------------|


       PM--------|     PM|     PM                             PM
|----------------------------------------------------------------|
|----------------------------------------------------------------|
|----------------------------------------------------------------|
|----------------------------------------------------------------|
|-4--4---------------------------6--6-4-5-6-6-4-5-6-6-4-5-6-6----|
|-2--2-2-2-2-2-2-2-5p2-2-2-5p2-2-4--4-2-3-4-4-2-3-4-4-2-3-4-4-0--|


Both Gtrs, Gtr 3 Lead (to be added)
|------------------------------------------------------------|
|------------------------------------------------------------|
|------------------------------------------------------------|
|-6--6--6-6-6--6-6-6--6-6-5-4-2--2--2-2-2--2-2-2--2-2-4-5----|
|-4--4--4-4-4--4-4-4--4-4-3-2-0--0--0-0-0--0-0-0--0-0-2-3----|
|------------------------------------------------------------|


Gtr 1
|---------------------------------------------------------------|
|---------------------------------------------------------------|
|---------------------------------------------------------------|
|-6--6--6-6-6--6-6-6-6-6-6-6-6-4--4-4-4-4-4-4-4--4-4-4-4-4-4----|
|-4--4--4-4-4--4-4-4-4-4-4-4-4-2--2-2-2-2-2-2-2--2-2-2-2-2-2----|
|---------------------------------------------------------------|


Gtr 2
                                      PM            PM
|------------------------------------------------------------|
|-----------------------------------5---5-4-------5---5-4----|
|-----------------------------------4---4-4-------4---4-4----|
|-6--6--6-6-6--6-6-6-6-6-6-6-6-4-------------4---------------|
|-4--4--4-4-4--4-4-4-4-4-4-4-4-2--2---2------2--2---2--------|
|------------------------------------------------------------|


Both Gtrs
|------------------------------------------------------------|
|------------------------------------------------------------|
|------------------------------------------------------------|
|-6--6--6-6-6--6-6-6--6-6-5-4-2--2--2-2-2--2-2-2--2-2-2-2----|
|-4--4--4-4-4--4-4-4--4-4-3-2-0--0--0-0-0--0-0-0--0-0-0-0----|
|------------------------------------------------------------|


       PM--------|     PM|     PM     PM--------|     PM|     PM     PM--------|     PM|
|-----------------------------------------------------------------------------------------------|
|-----------------------------------------------------------------------------------------------|
|-----------------------------------------------------------------------------------------------|
|-----------------------------------------------------------------------------------------------|
|-4--4---------------------------4--4---------------------------4--4----------------------------|
|-2--2-2-2-2-2-2-2-5p2-2-2-2h5-2-2--2-2-2-2-2-2-2-5p2-2-2-5p2-2-2--2-2-2-2-2-2-2-5p2-2-2-5p2----|


|-----------------------------|
|-----------------------------|
|-----------------------------|
|-----------------------------|
|-6--6--4--5--6--6--4--5--6---|
|-4--4--2--3--4--4--2--3--4---|


|---------------------------------------------------|
|-5--5--5--5--5--5--5--5--5--5--5--5--5--5--5--5----|
|-6--6--6--6--6--6--6--6--6--6--6--6--6--6--6--6----|
|-6--6--6--6--6--6--6--6--6--6--6--6--6--6--6--6----|
|-4--4--4--4--4--4--4--4--4--4--4--4--4--4--4--4----|
|---------------------------------------------------|


Tablature Legend
----------------
 h   - hammer-on
 p   - pull-off
 b   - bend
 pb  - pre-bend
 r   - bend release (if no number after the r, then release immediately)
 /\  - slide into or out of (from/to "nowhere")
 s   - legato slide
 S   - shift slide
  - natural harmonic
[n]  - artificial harmonic
n(n) - tapped harmonic
 ~   - vibrato
 tr  - trill
 T   - tap
 TP  - trem. picking
 PM  - palm muting
\n/  - tremolo bar dip; n = amount to dip
 \n  - tremolo bar down
 n/  - tremolo bar up
/n\  - tremolo bar inverted dip
 =   - hold bend; also acts as connecting device for hammers/pulls
 <>  - volume swell (louder/softer)
 x   - on rhythm slash represents muted slash
 o   - on rhythm slash represents single note slash

Misc Legend
-----------
 |  - bar
||  - double bar
||o - repeat start
o|| - repeat end
*|  - double bar (ending)
 :  - bar (freetime)
 $  - Segno
 &  - Coda
Tempo markers -  = BPM(8/16=s8/s16), where s8 = swing 8ths, s16 = swing 16ths

Добавлено: 09.08.2013
Другие материалы по этой песне:
  • Аккорды и текст

Страница создана 25.02.2012
http://primanota.ru/annihilator/city-of-ice-chords.htm
Привет, Гость.
Предлагаем пройти революционный курс по гитаре.
Подарок от PrimaNota.Ru, забирай!