PrimaNota.ru - самый крупный в мире бесплатный архив песенных текстов, аккордов, табулатур и нот


Annihilator - Bloodbath - текст песни, таба, видео

Регистрация Запомнить меня
Войти через:  Facebook Google Twitter Vk Yandex Mail.ru

Annihilator - Bloodbath - текст песни, таба, видео

Печатать
Просмотров: 189
Авторы музыки: Jeff Waters
Авторы текста: Big John Bates, Jeff Waters
Annihilator - Bloodbath

tabbed by ol753
www.annihilatormetal.com
ol753_357lo@yahoo.co.uk

Tuning - E A D G B E


Gtr 1
play 4 times
  PM----------------------|       PM----------------------|
|-----------------------------------------------------------------|
|-----------------------------------------------------------------|
|-------------------------------0---------------------------------|
|-----------------------------6---------------------------------0-|
|---------------------------8---------------------------------1---|
|-0-1-2-0-1-2-0-1-2-0-1-2-0-------0-1-2-0-1-2-0-1-2-0-1-2-0-3-----|


Gtr 2
play 4 times
  PM--|
|----------|
|----------|
|----------|
|----------|
|----------|
|-0-1-2----|


Gtr 2
  PM------------------------------------------------------------|
|--------------------------------------------------------------------|
|--------------------------------------------------------------------|
|--------------------------------------------------------------------|
|--------------------------------------------------------------------|
|--------------------------------------------------------------------|
|-0-1-2-2-2-2-2-2-2-2-2-2-2-2-2-2-0-1-2-2-2-2-2-2-2-2-2-2-2-2-2-2----|


  PM--------------------------------------------|
|--------------------------------------------------------------------|
|--------------------------------------------------------------------|
|--------------------------------------------------------------------|
|--------------------------------------------------------------------|
|-------------------------------------------------4-4-4-4-4-4-4-4----|
|-0-1-2-2-2-2-2-2-2-2-2-2-2-2-2-2-0-1-2-2-2-2-2-2-2-2-2-2-2-2-2-2----|


Both Gtrs
play twice
  PM----------------------|       PM----------------------|
|-----------------------------------------------------------------|
|-----------------------------------------------------------------|
|-------------------------------0---------------------------------|
|-----------------------------6---------------------------------0-|
|---------------------------8---------------------------------1---|
|-0-1-2-0-1-2-0-1-2-0-1-2-0-------0-1-2-0-1-2-0-1-2-0-1-2-0-3-----|


Gtr 1
play twice
  PM----------------------|       PM----------------------|
|-----------------------------------------------------------------|
|-----------------------------------------------------------------|
|-------------------------------0---------------------------------|
|-----------------------------6---------------------------------0-|
|---------------------------8---------------------------------1---|
|-0-1-2-0-1-2-0-1-2-0-1-2-0-------0-1-2-0-1-2-0-1-2-0-1-2-0-3-----|


Gtr 2
play twice
  PM----------------------|        PM----------------------|
|---------------------------------------------------------------------|
|---------------------------------------------------------------------|
|--------------------------------0------------------------------------|
|------------------------------9---------------------------------0----|
|---------------------------11---------------------------------4------|
|-0-1-2-0-1-2-0-1-2-0-1-2-0--------0-1-2-0-1-2-0-1-2-0-1-2-0-6--------|


Gtr 1
play twice
  PM    PM    PM    PM    PM      PM    PM    PM    PM    PM
|--------------------------------------------------------------------|
|--------------------------------------------------------------------|
|-------------------------------0------------------------------------|
|-----------------------------6---------------------------------0----|
|---3S4---4S5---3S4---4S5---8-------3S4---4S5---3S4---4S5-----1------|
|-0-1S2-0-2S3-0-1S2-0-2S3-0-------0-1S2-0-2S3-0-1S2-0-2S3-0-3--------|


  PM    PM    PM    PM    PM      PM    PM    PM|
|--------------------------------------------------------------------|
|--------------------------------------------------------------------|
|-------------------------------0------------------------------------|
|-----------------------------6--------------------------------------|
|---3S4---4S5---3S4---4S5---8-------3S4---4S5---------------3--------|
|-0-1S2-0-2S3-0-1S2-0-2S3-0-------0-1S2-0-2S3-0-0-4-3-0-1-2---2-1----|


Gtr 2
play twice
  PM    PM    PM    PM    PM       PM    PM    PM    PM    PM
|---------------------------------------------------------------------|
|---------------------------------------------------------------------|
|--------------------------------0------------------------------------|
|------------------------------9---------------------------------0----|
|---3S4---4S5---3S4---4S5---11-------3S4---4S5---3S4---4S5-----4------|
|-0-1S2-0-2S3-0-1S2-0-2S3-0--------0-1S2-0-2S3-0-1S2-0-2S3-0-6--------|


  PM    PM    PM    PM    PM       PM    PM    PM|
|---------------------------------------------------------------------|
|---------------------------------------------------------------------|
|--------------------------------0------------------------------------|
|------------------------------9--------------------------------------|
|---3S4---4S5---3S4---4S5---11-------3S4---4S5---------------6--------|
|-0-1S2-0-2S3-0-1S2-0-2S3-0--------0-1S2-0-2S3-0-0-4-3-0-4-5---5-4----|


Gtr 1, Gtr 2 accentuates parts
   PM---------------------------|        PM---------------------------|
|---------------------------------------------------------------------------------|
|---------------------------------------------------------------------------------|
|---------------------------------------------------------------------------------|
|---------------------------------------------------------------------------------|
|---------------------------------8--8----------------------------------15--15----|
|-12-10-0-12-10-0-12-10-0-12-10-0-6--6--12-10-0-12-10-0-12-10-0-12-10-0-13--13----|


   PM---------------------------|       PM--------------------|
|-----------------------------------------------------------------------|
|-----------------------------------------------------------------------|
|-----------------------------------------------------------------------|
|-----------------------------------------------------------------------|
|---------------------------------8--8--------------------------3--3----|
|-12-10-0-12-10-0-12-10-0-12-10-0-6--6--6-3-0-6-3-0-6-3-0-6-3-0-1--1----|


Both Gtrs
play twice
   PM---------------------------|        PM---------------------------|
|---------------------------------------------------------------------------------|
|---------------------------------------------------------------------------------|
|---------------------------------------------------------------------------------|
|---------------------------------------------------------------------------------|
|---------------------------------8--8----------------------------------15--15----|
|-12-10-0-12-10-0-12-10-0-12-10-0-6--6--12-10-0-12-10-0-12-10-0-12-10-0-13--13----|


   PM---------------------------|       PM--------------------|
|-----------------------------------------------------------------------|
|-----------------------------------------------------------------------|
|-----------------------------------------------------------------------|
|-----------------------------------------------------------------------|
|---------------------------------8--8--------------------------3--3----|
|-12-10-0-12-10-0-12-10-0-12-10-0-6--6--6-3-0-6-3-0-6-3-0-6-3-0-1--1----|


Verse
Both Gtrs
play twice
   PM---------------------------|        PM---------------------------|
|---------------------------------------------------------------------------------|
|---------------------------------------------------------------------------------|
|---------------------------------------------------------------------------------|
|---------------------------------------------------------------------------------|
|---------------------------------8--8----------------------------------15--15----|
|-12-10-0-12-10-0-12-10-0-12-10-0-6--6--12-10-0-12-10-0-12-10-0-12-10-0-13--13----|


   PM---------------------------|       PM--------------------|
|-----------------------------------------------------------------------|
|-----------------------------------------------------------------------|
|-----------------------------------------------------------------------|
|-----------------------------------------------------------------------|
|---------------------------------8--8--------------------------3--3----|
|-12-10-0-12-10-0-12-10-0-12-10-0-6--6--6-3-0-6-3-0-6-3-0-6-3-0-1--1----|


Chorus
Both Gtrs
play 3 times
  PM----------------------|
|------------------------------|
|------------------------------|
|------------------------------|
|------------------------------|
|------------------------------|
|-0--0-0-0--0--0-0-0-0-0--0----|


4th time
       PM  PM  PM
|---------------------|
|---------------------|
|---------------------|
|---------------------|
|-8--8---5---8---5----|
|-6--6-0-3-0-6-0-3----|


play above 3 times


play 3 times
  PM----------------------|
|------------------------------|
|------------------------------|
|------------------------------|
|------------------------------|
|------------------------------|
|-0--0-0-0--0--0-0-0-0-0--0----|


4th time
|------------------|
|------------------|
|------------------|
|------------------|
|-8--8--5--8--5----|
|-6--6--3--6--3----|


Both Gtrs
play twice, Gtr 3 Lead (to be added)
   PM---------------------------|        PM---------------------------|
|---------------------------------------------------------------------------------|
|---------------------------------------------------------------------------------|
|---------------------------------------------------------------------------------|
|---------------------------------------------------------------------------------|
|---------------------------------8--8----------------------------------15--15----|
|-12-10-0-12-10-0-12-10-0-12-10-0-6--6--12-10-0-12-10-0-12-10-0-12-10-0-13--13----|


   PM---------------------------|       PM--------------------|
|-----------------------------------------------------------------------|
|-----------------------------------------------------------------------|
|-----------------------------------------------------------------------|
|-----------------------------------------------------------------------|
|---------------------------------8--8--------------------------3--3----|
|-12-10-0-12-10-0-12-10-0-12-10-0-6--6--6-3-0-6-3-0-6-3-0-6-3-0-1--1----|


Repeat Verse
Repeat Chorus


Both Gtrs
play twice
       PM  PM  PM       PM  PM  PM
|--------------------------------------|
|--------------------------------------|
|--------------------------------------|
|-8--8---5---8---5-8--8---5---8---5----|
|-6--6-0-3-0-6-0-3-6--6-0-3-0-6-0-3----|
|--------------------------------------|


Both Gtrs
         PM  PM   PM         PM  PM   PM         PM   PM   PM          PM   PM   PM
|--------------------------------------------------------------------------------------|
|--------------------------------------------------------------------------------------|
|--------------------------------------------------------------------------------------|
|-11--11---8---11---8-11--11---8---11---8-14--14---11---14---11-17--17---14---17---14--|
|--9---9-0-6-0--9-0-6--9---9-0-6-0--9-0-6-12--12-0--9-0-12-0--9-15--15-0-12-0-15-0-12--|
|--------------------------------------------------------------------------------------|


Both Gtrs
play twice, Gtr 3 Lead (to be added)
  PM--------------------------------------------|
|--------------------------------------------------------------------|
|--------------------------------------------------------------------|
|--------------------------------------------------------------------|
|-------------------------------------------------2-2-2-2------------|
|-------------------------------------------------0-0-0-0-2-2-2-2----|
|-0-2-2-0-2-2-0-2-2-0-2-2-0-2-2-2-0-2-2-0-2-2-0-2---------0-0-0-0----|


  PM--------------------------------------------|
|--------------------------------------------------------------------|
|--------------------------------------------------------------------|
|--------------------------------------------------------------------|
|-------------------------------------------------2-2-2-2-9-9-9-9----|
|-------------------------------------------------0-0-0-0-7-7-7-7----|
|-0-2-2-0-2-2-0-2-2-0-2-2-0-2-2-2-0-2-2-0-2-2-0-2--------------------|


Both Gtrs
play twice
  PM--|        PM--|        PM--|     PM
|-----------------------------------------------|
|-------3---3---------------------3-------------|
|-------2---2--------2---2--------2-------------|
|-------0---0--------2---2--------0-----2--4----|
|-------0---0--------0---0--------0-----0--2----|
|-2-0-2--------2-0-2--------2-0-2-----0---------|


  PM--|        PM--|        PM--|     PM
|-----------------------------------------------|
|-------3---3---------------------3-------------|
|-------2---2--------2---2--------2-------------|
|-------0---0--------2---2--------0-----2-------|
|-------0---0--------0---0--------0-----0--2----|
|-2-0-2--------2-0-2--------2-0-2-----0----0----|


Both Gtrs
play twice
  PM--|                        PM--|
|--------------------------------------------------------------|
|--------------------------------------------------------------|
|--------------------------------------------------------------|
|------------6S7-7------------------------6S7-7-----9-9-9-9----|
|-------7-6--4S5-5-4p0-7-7-6S7-------7-6--4S5-5-4p0-7-7-7-7----|
|-2-0-2-5-4------------5-5-4S5-2-0-2-5-4-----------------------|


Gtr 1
play twice
|-----------------------------------------------------------------------|
|-----------------------------------------------------------------------|
|-----------------------------------------------------------------------|
|-----------------------------------------------------------------------|
|-9-9-9-9-9-9-9-9-11p9-9-9-9-9-9-9-12p9-9-9-9-9-9-9-14p9-9-9-9-9-9-9----|
|-----------------------------------------------------------------------|


Gtr 2
play twice
|----------------------------------------------------------------------|
|----------------------------------------------------------------------|
|----------------------------------------------------------------------|
|----------------------------------------------------------------------|
|-7-7-7-7-7-7-7-7-9p7-7-7-7-7-7-7-11p7-7-7-7-7-7-7-12p7-7-7-7-7-7-7----|
|----------------------------------------------------------------------|


Both Gtrs
      PM
|----------|
|----------|
|----------|
|----------|
|-2-2------|
|-0-0-0----|


Both Gtrs
play 7 times
    PM  PM    PM  PM
|--------------------------|
|--------------------------|
|--------------------------|
|---------2-1-------2-1----|
|-3---3---2-1---3---2-1----|
|-1-0-1-0-0---0-1-0-0------|


8th time
    PM  PM    PM  PM
|----------------------|
|----------------------|
|----------------------|
|---------2-1----------|
|-3---3---2-1---3------|
|-1-0-1-0-0---0-1-0----|


Gtr 1
  PM-------------------------------------------------------------------|
|----------------------------------------------------------------------------|
|----------------------------------------------------------------------------|
|-4-4-4-4-7-7-7-7-6-6-6-6-9-9-9-9-7-7-7-7-10-10-10-10-9-9-9-9-12-12-12-12----|
|----------------------------------------------------------------------------|
|----------------------------------------------------------------------------|
|----------------------------------------------------------------------------|


   PM------------------------------------------------------------------------------|
|--------------------------------------------------------------------------------------------|
|--------------------------------------------------------------------------------------------|
|-10-10-10-10-13-13-13-13-12-12-12-12-15-15-15-15-13-13-13-13-16-16-16-16-15-15-15-15-18-----|
|--------------------------------------------------------------------------------------------|
|--------------------------------------------------------------------------------------------|
|--------------------------------------------------------------------------------------------|


Gtr 2
  PM-----------------------------------------------------------------------------------|
|--------------------------------------------------------------------------------------------|
|--------------------------------------------------------------------------------------------|
|-7-7-7-7-10-10-10-10-9-9-9-9-12-12-12-12-10-10-10-10-13-13-13-13-12-12-12-12-15-15-15-15----|
|--------------------------------------------------------------------------------------------|
|--------------------------------------------------------------------------------------------|
|--------------------------------------------------------------------------------------------|


   PM------------------------------------------------------------------------------|
|--------------------------------------------------------------------------------------------|
|--------------------------------------------------------------------------------------------|
|-13-13-13-13-16-16-16-16-15-15-15-15-18-18-18-18-16-16-16-16-19-19-19-19-18-18-18-18-21-----|
|--------------------------------------------------------------------------------------------|
|--------------------------------------------------------------------------------------------|
|--------------------------------------------------------------------------------------------|


Both Gtrs
play 3 times, Gtr 3 Lead (to be added)
  PM----------------------|
|------------------------------|
|------------------------------|
|------------------------------|
|------------------------------|
|------------------------------|
|-0--0-0-0--0--0-0-0-0-0--0----|


4th time
       PM  PM  PM
|---------------------|
|---------------------|
|---------------------|
|---------------------|
|-8--8---5---8---5----|
|-6--6-0-3-0-6-0-3----|


play above 3 times


Both Gtrs
play twice
  PM----------------------|
|------------------------------|
|------------------------------|
|------------------------------|
|------------------------------|
|------------------------------|
|-0--0-0-0--0--0-0-0-0-0--0----|


  PM----------------------------|
|------------------------------------------------------|
|------------------------------------------------------|
|------------------------------------------------------|
|------------------------------------------------------|
|----------------------------8--8--8--8--8--8--8--8----|
|-0--0-0-0--0--0-0-0-0-0--0--6--6--6--6--6--6--6--6----|


Both Gtrs
   PM------------------------------------------------|
|--------------------------------------------------------------------|
|--------------------------------------------------------------------|
|--------------------------------------------------------------------|
|--------------------------------------------------------------------|
|------------------------------------------------------3--3--3--3----|
|-12-10-0-0-10-12-10-8-0-0-7-0-0-6-0-0-5-0-0-4-0-0-3-0-1--1--1--1----|


Play Verse twice


Chorus
Both Gtrs
play twice
   PM---------------------------|        PM---------------------------|
|---------------------------------------------------------------------------------|
|---------------------------------------------------------------------------------|
|---------------------------------------------------------------------------------|
|---------------------------------------------------------------------------------|
|---------------------------------8--8----------------------------------15--15----|
|-12-10-0-12-10-0-12-10-0-12-10-0-6--6--12-10-0-12-10-0-12-10-0-12-10-0-13--13----|


   PM---------------------------|       PM--------------------|
|-----------------------------------------------------------------------|
|-----------------------------------------------------------------------|
|-----------------------------------------------------------------------|
|-----------------------------------------------------------------------|
|---------------------------------8--8--------------------------3--3----|
|-12-10-0-12-10-0-12-10-0-12-10-0-6--6--6-3-0-6-3-0-6-3-0-6-3-0-1--1----|


Both Gtrs
  PM------------|     PM----------|
|--------------------------------------|
|--------------------------------------|
|--------------------------------------|
|--------------------------------------|
|-2-------------3-2---*----------------| * listen for timings etc.
|-0-------------1-0---0-0-0-0-0-0-0----|


Tablature Legend
----------------
 h   - hammer-on
 p   - pull-off
 b   - bend
 pb  - pre-bend
 r   - bend release (if no number after the r, then release immediately)
 /\  - slide into or out of (from/to "nowhere")
 s   - legato slide
 S   - shift slide
  - natural harmonic
[n]  - artificial harmonic
n(n) - tapped harmonic
 ~   - vibrato
 tr  - trill
 T   - tap
 TP  - trem. picking
 PM  - palm muting
\n/  - tremolo bar dip; n = amount to dip
 \n  - tremolo bar down
 n/  - tremolo bar up
/n\  - tremolo bar inverted dip
 =   - hold bend; also acts as connecting device for hammers/pulls
 <>  - volume swell (louder/softer)
 x   - on rhythm slash represents muted slash
 o   - on rhythm slash represents single note slash

Misc Legend
-----------
 |  - bar
||  - double bar
||o - repeat start
o|| - repeat end
*|  - double bar (ending)
 :  - bar (freetime)
 $  - Segno
 &  - Coda
Tempo markers -  = BPM(8/16=s8/s16), where s8 = swing 8ths, s16 = swing 16ths
Добавлено: 11.10.2013
Другие материалы по этой песне:
  • Аккорды и текст

Страница создана 10.07.2012
http://primanota.ru/annihilator/bloodbath-chords.htm
Привет, Гость.
Предлагаем пройти революционный курс по гитаре.
Подарок от PrimaNota.Ru, забирай!