PrimaNota.ru - самый крупный в мире бесплатный архив песенных текстов, аккордов, табулатур и нот


Annihilator - Burns Like a Buzzsaw Blade - текст песни, таба, видео

Регистрация Запомнить меня
Войти через:  Facebook Google Twitter Vk Yandex Mail.ru

Annihilator - Burns Like a Buzzsaw Blade - текст песни, таба, видео

Печатать
Просмотров: 133
Авторы музыки: Jeff Waters
Авторы текста: Big John Bates, Jeff Waters, Jody Weil
Annihilator - Burns Like A Buzzsaw Blade

tabbed by Ol Drake [EVILE]
www.annihilatormetal.com
http://www.facebook.com/pages/Annihilator/9614139730

* * ATTENTION BANDS: Jeff Waters has time for some mixing and/or mastering... 
so if you are legitimately serious about getting him to do your cd, contact: 
watersound@sympatico.ca * *

Tuning - Drop 1/4 of a step


Both Gtrs
  PM--|            PM--|
|-----------------------------------|
|-----------------------------------|
|-----------------------------------|
|-------5---5------------5----10----|
|-5-3-0-2---3------5-3-0-2-----8----|
|-----------------------------------|

  PM--|            PM--|
|---------------------------------------------|
|---------------------------------------------|
|---------------------------------------------|
|-------5---5------------5-----10---10---7----|
|-5-3-0-2---3------5-3-0-2------8----7---5----|
|---------------------------------------------|


Gtr 1
  PM--|            PM--|
|-----------------------------------|
|-----------------------------------|
|-----------------------------------|
|-------5---5------------5----10----|
|-5-3-0-2---3------5-3-0-2-----8----|
|-----------------------------------|

  PM--|            PM--|
|---------------------------------------------|
|---------------------------------------------|
|---------------------------------------------|
|-------5---5------------5-----10---10---7----|
|-5-3-0-2---3------5-3-0-2------8----7---5----|
|---------------------------------------------|


Gtr 2
  PM--|            PM--|
|-----------------------------------|
|-----------------------------------|
|-----------------------------------|
|-------5---5------------5----10----|
|-5-3-0-2---3------5-3-0-2-----8----|
|-----------------------------------|

  PM--|            PM--|
|---------------------------------------------|
|---------------------------------------------|
|---------------------------------------------|
|-------5---5------------5-----10---10---7----|
|-8-7-0-2---3------8-7-0-2------8----7---5----|
|---------------------------------------------|


Both Gtrs
play twice
               PM--------|               PM--------|
|-------------------------------------------------------|
|-------------------------------------------------------|
|-------------------------------------------------------|
|-------5---5--------------------5---10-----------------|
|-5p3p0-2---3--0-0-0-0-0-0-5p3p0-2----8--0-0-0-0-0-0----|
|-------------------------------------------------------|


               PM--------|
|------------------------------------------------------|
|------------------------------------------------------|
|------------------------------------------------------|
|-------5---5--------------------5---5--10---10---7----|
|-5p3p0-2---3--0-0-0-0-0-0-5p3p0-2---2---8----7---5----|
|------------------------------------------------------|


Gtr 3
|------------------------|
|------------------------|
|-<5>-------------/14----|
|------------------------|
|------------------------|
|------------------------|


|------------------------------------------------------------|
|-17b18-----------17b18--17--15--17--15h17p15----15----------|
|---------------------------------------------17----17b19----|
|------------------------------------------------------------|
|------------------------------------------------------------|
|------------------------------------------------------------|


|----------------------------------------17-------22p17----17----------------------------------------|
|-------17----18-17-20-18-17-20b22----------20p17-------20----20p17----17----------------------------|
|-17-19----19-------------------------------------------------------19----20p19p17----19----17h18----|
|----------------------------------------------------------------------------------19----19----------|
|----------------------------------------------------------------------------------------------------|
|----------------------------------------------------------------------------------------------------|


|-----------------------------------------------------------------------------------------17----------|
|--------------------------------------------------------------------------------------17----20b22----|
|-------17-------------------------------------------------------------------17-19b21-----------------|
|-19-17----17----17------------------------------------------------17-17-19---------------------------|
|-------------19----19-18-17-15-17b18r17p15------------15-15-17S19------------------------------------|
|-------------------------------------------17---15S17------------------------------------------------|


Gtr 2
  PM--------------------------------|
|------------------------------------------|
|------------------------------------------|
|------------------------------------------|
|-------------------------------------6----|
|-0-0-0-0-0-0-6-6-6-6-6-6-1-1-1-1-1-1-4----|
|------------------------------------------|


(bass fill)


Gtr 1
|---------|
|---------|
|-[14]\---|
|---------|
|---------|
|---------|

Gtr 2
|---------|
|---------|
|-[17]\---|
|---------|
|---------|
|---------|


Both Gtrs
  PM----------------------------------------------------------------------------------|
|--------------------------------------------------------------------------------------------|
|--------------------------------------------------------------------------------------------|
|--------------------------------------------------------------------------------------------|
|---------------------------------------------------------------------------------------6----|
|-0-0-0-0-0-0-6-6-6-6-6-6-1-1-1-1-1-1-4-4-4-4-4-4-0-0-0-0-0-0-6-6-6-6-6-6-1-1-1-1-1-1-1-4----|
|--------------------------------------------------------------------------------------------|


  PM------------------------------------------------------|
|----------------------------------------------------------------|
|----------------------------------------------------------------|
|----------------------------------------------------------------|
|-----------------------------------------------------------6----|
|-0-0-0-0-6-6-6-6-1-1-1-1-4-4-4-4-0-0-0-0-6-6-6-6-1-1-1-1-1-4----|
|----------------------------------------------------------------|


Both Gtrs
  PM----------------------------------------------------------------------------------|
|--------------------------------------------------------------------------------------------|
|--------------------------------------------------------------------------------------------|
|--------------------------------------------------------------------------------------------|
|--------------------------------------------------------------------------------------------|
|-0-0-0-0-0-0-6-6-6-6-6-6-1-1-1-1-1-1-4-4-4-4-4-4-0-0-0-0-0-0-6-6-6-6-6-6-1-1-1-1-1-1-1-/-\--|
|--------------------------------------------------------------------------------------------|


Verse
Both Gtrs
play 4 times
      PM    PM    PM|        PM    PM--------|
|---------------------------------------------------|
|---------------------------------------------------|
|---------------------------------------------------|
|-2-----8-----3-------6--2-----8---------------6----|
|-0---0-6---0-1---0-0-4--0---0-6---0-1-1-1-1-1-4----|
|---------------------------------------------------|


Chorus
Both Gtrs
play 4 times
  PM----------------------------------------------------|
|----------------------------------------------------------------|
|----------------------------------------------------------------|
|----------------------------------------------------------------|
|---------------------------------------------------------8S7----|
|---------------------------------------------------------6S5----|
|-6-5-3-0-6-5-3-0-6-5-3-0-6-5-3-0-6-5-3-0-6-5-3-0-6-5-3-0--------|


Gtr 1
  PM--------------------------------|
|------------------------------------------|
|------------------------------------------|
|------------------------------------------|
|------------------------------------------|
|-0-0-0-0-0-0-6-6-6-6-6-6-1-1-1-1-1-1-\----|
|------------------------------------------|


Both Gtrs
  PM----------------------------------------------------------------------------------|
|--------------------------------------------------------------------------------------------|
|--------------------------------------------------------------------------------------------|
|--------------------------------------------------------------------------------------------|
|--------------------------------------------------------------------------------------------|
|-0-0-0-0-0-0-6-6-6-6-6-6-1-1-1-1-1-1-4-4-4-4-4-4-0-0-0-0-0-0-6-6-6-6-6-6-1-1-1-1-1-1-1-\----|
|--------------------------------------------------------------------------------------------|


Verse
Both Gtrs
play 4 times
      PM    PM    PM|        PM    PM--------|
|---------------------------------------------------|
|---------------------------------------------------|
|---------------------------------------------------|
|-2-----8-----3-------6--2-----8---------------6----|
|-0---0-6---0-1---0-0-4--0---0-6---0-1-1-1-1-1-4----|
|---------------------------------------------------|


Chorus
Both Gtrs
play 4 times
  PM----------------------------------------------------|
|----------------------------------------------------------------|
|----------------------------------------------------------------|
|----------------------------------------------------------------|
|---------------------------------------------------------8S7----|
|---------------------------------------------------------6S5----|
|-6-5-3-0-6-5-3-0-6-5-3-0-6-5-3-0-6-5-3-0-6-5-3-0-6-5-3-0--------|


Both Gtrs
|------|
|------|
|------|
|-9\---|
|-7\---|
|------|


pick scrapes


Gtr 1
play 4 times
  PM------------------------------------------------------|
|----------------------------------------------------------------|
|----------------------------------------------------------------|
|----------------------------------------------------------------|
|----------------------------------------------------------------|
|-----------------------------------------------------------6----|
|-0-0-0-0-6-6-6-6-1-1-1-1-4-4-4-4-0-0-0-0-6-6-6-6-1-1-1-1-1-4----|


Gtr 2
play 4 times
  PM------------------------------------------------------|
|----------------------------------------------------------------|
|----------------------------------------------------------------|
|----------------------------------------------------------------|
|----------------------------------------------------------------|
|-----------------------------------------------------------9----|
|-0-0-0-0-6-6-6-6-1-1-1-1-4-4-4-4-0-0-0-0-6-6-6-6-1-1-1-1-1-7----|


Gtr 3 Lead (to be added)


Both Gtrs
play 4 times
  PM----------------------------------------------------|
|----------------------------------------------------------------|
|----------------------------------------------------------------|
|----------------------------------------------------------------|
|---------------------------------------------------------8S7----|
|---------------------------------------------------------6S5----|
|-6-5-3-0-6-5-3-0-6-5-3-0-6-5-3-0-6-5-3-0-6-5-3-0-6-5-3-0--------|


Verse
Both Gtrs
play twice
      PM    PM    PM|        PM    PM--------|
|---------------------------------------------------|
|---------------------------------------------------|
|---------------------------------------------------|
|-2-----8-----3-------6--2-----8---------------6----|
|-0---0-6---0-1---0-0-4--0---0-6---0-1-1-1-1-1-4----|
|---------------------------------------------------|


Both Gtrs
play twice
      PM    PM    PM|         PM    PM--------|
|----------------------------------------------------|
|----------------------------------------------------|
|----------------------------------------------------|
|----------------------------------------------------|
|-2-----8-----3-------6---2-----8---------------6----|
|-0---0-6---0-1---0-0-4---0---0-6---0-1-1-1-1-1-4----|


Chorus
Both Gtrs
play 4 times
  PM----------------------------------------------------|
|----------------------------------------------------------------|
|----------------------------------------------------------------|
|----------------------------------------------------------------|
|---------------------------------------------------------8S7----|
|---------------------------------------------------------6S5----|
|-6-5-3-0-6-5-3-0-6-5-3-0-6-5-3-0-6-5-3-0-6-5-3-0-6-5-3-0--------|


Both Gtrs
play twice
  PM------------------------------------------------------------|
|--------------------------------------------------------------------|
|--------------------------------------------------------------------|
|--------------------------------------------------------------------|
|--------------------------------------------------------------------|
|--------------------------------------------------------------------|
|-6-5-3-0-6-5-3-0-6-5-3-0-6-5-3-0-6-5-3-0-6-5-3-0-6-5-3-0-6-5-3-0----|


  PM------------------------------------------------------------|
|--------------------------------------------------------------------|
|--------------------------------------------------------------------|
|--------------------------------------------------------------------|
|--------------------------------------------------------------------|
|--------------------------------------------------------------------|
|-0-0-0-0-0-0-0-0-0-0-0-0-0-0-0-0-0-0-0-0-0-0-0-0-0-0-0-0-0-0-0-0----|


Gtr 3
play twice
(pick aswell as trill)
|-19tr20-------18tr19-------17tr18------16tr17------15tr16------14tr15---|
|------------------------------------------------------------------------|
|------------------------------------------------------------------------|
|------------------------------------------------------------------------|
|------------------------------------------------------------------------|
|------------------------------------------------------------------------|


           T           T           T           T
|-12p10p8-16--12p10p8-16--12p10p8-16--12p10p8-16----|
|---------------------------------------------------|
|---------------------------------------------------|
|---------------------------------------------------|
|---------------------------------------------------|
|---------------------------------------------------|


Both Gtrs
|------|
|------|
|------|
|------|
|-8----|
|-6----|


|-------------------------------------|
|-------------------------------------|
|-------------------------------------|
|---------------------------8-8-8\----|
|-2-------------------------8-8-8\----|
|-0-------------------------6-6-6\----|


Tablature Legend
----------------
 h   - hammer-on
 p   - pull-off
 b   - bend
 pb  - pre-bend
 r   - bend release (if no number after the r, then release immediately)
 /\  - slide into or out of (from/to "nowhere")
 s   - legato slide
 S   - shift slide
  - natural harmonic
[n]  - artificial harmonic
n(n) - tapped harmonic
 ~   - vibrato
 tr  - trill
 T   - tap
 TP  - trem. picking
 PM  - palm muting
\n/  - tremolo bar dip; n = amount to dip
 \n  - tremolo bar down
 n/  - tremolo bar up
/n\  - tremolo bar inverted dip
 =   - hold bend; also acts as connecting device for hammers/pulls
 <>  - volume swell (louder/softer)
 x   - on rhythm slash represents muted slash
 o   - on rhythm slash represents single note slash

Misc Legend
-----------
 |  - bar
||  - double bar
||o - repeat start
o|| - repeat end
*|  - double bar (ending)
 :  - bar (freetime)
 $  - Segno
 &  - Coda
Tempo markers -  = BPM(8/16=s8/s16), where s8 = swing 8ths, s16 = swing 16ths
Добавлено: 28.01.2014
Другие материалы по этой песне:
  • Аккорды и текст

Страница создана 15.07.2012
http://primanota.ru/annihilator/burns-like-a-buzzsaw-blade-chords.htm
Привет, Гость.
Предлагаем пройти революционный курс по гитаре.
Подарок от PrimaNota.Ru, забирай!