PrimaNota.ru - самый крупный в мире бесплатный архив песенных текстов, аккордов, табулатур и нот


Annihilator - Cold Blooded - текст песни, таба, видео

Регистрация Запомнить меня
Войти через:  Facebook Google Twitter Vk Yandex Mail.ru

Annihilator - Cold Blooded - текст песни, таба, видео

Печатать
Просмотров: 131
Авторы музыки: Jeff Waters
Авторы текста: Joe Comeau
Annihilator - Cold Blooded

tabbed by 
ol753_357lo@yahoo.co.uk

Tuning - D A D G B E


Gtr 2
  PM
|------|
|------|
|------|
|------|
|------|
|-*----|


Gtr 1
  PM
|------|
|------|
|------|
|------|
|------|
|-*----|


Both Gtrs
play 3 times, Gtr 3 (to be added)
  PM------------------------------------------------------|
|-------------------------------------------------------------|
|-------------------------------------------------------------|
|-------------------------------------------------------------|
|-------------------------------------------------------------|
|-------------------------------------------------------------|
|-0--0-0-0-0-0--0--0-0-0-0-0--0--0-0-0-0-0--3-3-5-5-6-6-3-3---|


4th time
Gtr 1
  PM------------------------------------------------------------|
|--------------------------------------------------------------------|
|--------------------------------------------------------------------|
|--------------------------------------------------------------------|
|--------------------------------------------------------------------|
|-----------------2-2-2-2-5-5-5-5-8-8-8-8-5-5-5-5--------------------|
|-3-3-3-3-6-6-6-6---------------------------------9-9-9-9-6-6-6-6----|


Gtr 2
  PM--------------------------------------------------------------------|
|----------------------------------------------------------------------------|
|----------------------------------------------------------------------------|
|----------------------------------------------------------------------------|
|----------------------------------------------------------------------------|
|-----------------5-5-5-5-8-8-8-8-11-11-11-11-8-8-8-8------------------------|
|-6-6-6-6-9-9-9-9-------------------------------------12-12-12-12-9-9-9-9----|


play above twice


Verse
Both Gtrs
play 3 times
  PM------------------------------------------------------|
|-------------------------------------------------------------|
|-------------------------------------------------------------|
|-------------------------------------------------------------|
|-------------------------------------------------------------|
|-------------------------------------------------------------|
|-0--0-0-0-0-0--0--0-0-0-0-0--0--0-0-0-0-0--3-3-5-5-6-6-3-3---|


4th time
Gtr 1
  PM------------------------------------------------------------|
|--------------------------------------------------------------------|
|--------------------------------------------------------------------|
|--------------------------------------------------------------------|
|--------------------------------------------------------------------|
|-----------------2-2-2-2-5-5-5-5-8-8-8-8-5-5-5-5--------------------|
|-3-3-3-3-6-6-6-6---------------------------------9-9-9-9-6-6-6-6----|


Gtr 2
  PM--------------------------------------------------------------------|
|----------------------------------------------------------------------------|
|----------------------------------------------------------------------------|
|----------------------------------------------------------------------------|
|----------------------------------------------------------------------------|
|-----------------5-5-5-5-8-8-8-8-11-11-11-11-8-8-8-8------------------------|
|-6-6-6-6-9-9-9-9-------------------------------------12-12-12-12-9-9-9-9----|


play above twice


Chorus
Both Gtrs
play twice
  PM------------------------------------------------------------|
|--------------------------------------------------------------------|
|--------------------------------------------------------------------|
|--------------------------------------------------------------------|
|--------------------------------------------------------------------|
|--------------------------------------------------------------------|
|-0-0-0-0-6-6-6-6-1-1-1-1-4-4-4-4-0-0-0-0-6-6-6-6-7-7-7-7-6-6-6-6----|


  PM------------------------------------------------------------|
|--------------------------------------------------------------------|
|--------------------------------------------------------------------|
|--------------------------------------------------------------------|
|-----------------------------------------3-3-3-3-6-6-6-6------------|
|---------------------------------2-2-2-2-----------------5-5-5-5----|
|-0-0-0-0-6-6-6-6-1-1-1-1-4-4-4-4------------------------------------|


Gtr 1
play twice
  PM------------------------------------------------------------|
|--------------------------------------------------------------------|
|--------------------------------------------------------------------|
|--------------------------------------------------------------------|
|--------------------------------------------------------------------|
|--------------------------------------------------------------------|
|-0-0-0-0-6-6-6-6-1-1-1-1-4-4-4-4-0-0-0-0-6-6-6-6-7-7-7-7-6-6-6-6----|


  PM------------------------------------------------------------|
|--------------------------------------------------------------------|
|--------------------------------------------------------------------|
|--------------------------------------------------------------------|
|-----------------------------------------3-3-3-3-6-6-6-6------------|
|---------------------------------2-2-2-2-----------------5-5-5-5----|
|-0-0-0-0-6-6-6-6-1-1-1-1-4-4-4-4------------------------------------|


Gtr 2
play twice
  PM------------------------------------------------------------|
|--------------------------------------------------------------------|
|--------------------------------------------------------------------|
|--------------------------------------------------------------------|
|--------------------------------------------------------------------|
|--------------------------------------------------------------------|
|-0-0-0-0-6-6-6-6-1-1-1-1-4-4-4-4-0-0-0-0-6-6-6-6-7-7-7-7-6-6-6-6----|


  PM------------------------------------------------------------|
|--------------------------------------------------------------------|
|--------------------------------------------------------------------|
|--------------------------------------------------------------------|
|-----------------------------------------6-6-6-6-9-9-9-9------------|
|---------------------------------5-5-5-5-----------------8-8-8-8----|
|-0-0-0-0-6-6-6-6-1-1-1-1-4-4-4-4------------------------------------|


Both Gtrs
play 3 times, Gtr 3 Lead (to be added)
  PM------------------------------------------------------|
|-------------------------------------------------------------|
|-------------------------------------------------------------|
|-------------------------------------------------------------|
|-------------------------------------------------------------|
|-------------------------------------------------------------|
|-0--0-0-0-0-0--0--0-0-0-0-0--0--0-0-0-0-0--3-3-5-5-6-6-3-3---|


4th time
Gtr 1
  PM------------------------------------------------------------|
|--------------------------------------------------------------------|
|--------------------------------------------------------------------|
|--------------------------------------------------------------------|
|--------------------------------------------------------------------|
|-----------------2-2-2-2-5-5-5-5-8-8-8-8-5-5-5-5--------------------|
|-3-3-3-3-6-6-6-6---------------------------------9-9-9-9-6-6-6-6----|


Gtr 2
  PM--------------------------------------------------------------------|
|----------------------------------------------------------------------------|
|----------------------------------------------------------------------------|
|----------------------------------------------------------------------------|
|----------------------------------------------------------------------------|
|-----------------5-5-5-5-8-8-8-8-11-11-11-11-8-8-8-8------------------------|
|-6-6-6-6-9-9-9-9-------------------------------------12-12-12-12-9-9-9-9----|


Repeat Verse
Reapt Chorus


Both Gtrs
play 8 times, Gtr 3 (to be added)
  PM-----------------------------|
|-------------------------------------|
|-------------------------------------|
|-------------------------------------|
|-------------------------------------|
|-------------------------------------|
|-00-0-0-00-0--00-0-0-0-0-0--0-0-0----|


Both Gtrs
play 4 times
  PM--------------------------|
|----------------------------------|
|----------------------------------|
|----------------------------------|
|----------------------------------|
|----------------------------------|
|-00-0--00-0--0--0-0-0-0--0-0-0----|


Both Gtrs
play 8 times
  PM-----------------------------|
|-------------------------------------|
|-------------------------------------|
|-------------------------------------|
|-------------------------------------|
|-------------------------------------|
|-00-0-0-00-0--00-0-0-0-0-0--0-0-0----|


Both Gtrs
play twice, Gtr 3 Lead (to be added)
  PM--------------------------------------------------------|
|---------------------------------------------------------------------|
|---------------------------------------------------------------------|
|---------------------------------------------------------------------|
|---------------------------------------------------------------------|
|-------------------------------------------------------------3--0----|
|-2-00-2-0-2-0-2-0-2-00-2-0-2-0-2-0-2-00-2-0-2-0-2-0-2-00-2-0-3--0----|


  PM--------------------------------------------------------|
|-----------------------------------------------------------------------|
|-----------------------------------------------------------------------|
|-----------------------------------------------------------------------|
|-----------------------------------------------------------------------|
|-------------------------------------------------------------3--0--1---|
|-2-00-2-0-2-0-2-0-2-00-2-0-2-0-2-0-2-00-2-0-2-0-2-0-2-00-2-0-3--0--1---|


  PM--------------------------------------------------------|
|---------------------------------------------------------------------|
|---------------------------------------------------------------------|
|---------------------------------------------------------------------|
|---------------------------------------------------------------------|
|-------------------------------------------------------------3--0----|
|-2-00-2-0-2-0-2-0-2-00-2-0-2-0-2-0-2-00-2-0-2-0-2-0-2-00-2-0-3--0----|


  PM--------------------------------------------------------|
|-------------------------------------------------------------------------------|
|-------------------------------------------------------------------------------|
|-------------------------------------------------------------------------------|
|-------------------------------------------------------------------------------|
|-------------------------------------------------------------3--0--1--3--4--5--|
|-2-00-2-0-2-0-2-0-2-00-2-0-2-0-2-0-2-00-2-0-2-0-2-0-2-00-2-0-3--0--1--3--4--5--|


GTr 1
|-------------------------------|
|-------------------------------|
|-------------------------------|
|---7-6-----5--4-------3-2------|
|-6-----5-4-------3--2-----1----|
|-------------------------------|


Gtr 2
|-------------------------------|
|-------------------------------|
|-------------------------------|
|---8-7-----6--5-------4-3------|
|-7-----6-5-------4--3-----2----|
|-------------------------------|


Repeat Verse
Repeat Chorus


Both Gtrs
   PM----------------------------|
|-----------------------------------|
|-----------------------------------|
|-----------------------------------|
|----------3-3-3-3-6-6-6-6----------|
|--2-2-2-2-----------------5-5-5-5--|
|-----------------------------------|


Gtr 1
plays to fade
  PM------------------------------------------------------------|
|--------------------------------------------------------------------|
|--------------------------------------------------------------------|
|--------------------------------------------------------------------|
|--------------------------------------------------------------------|
|--------------------------------------------------------------------|
|-0-0-0-0-6-6-6-6-1-1-1-1-4-4-4-4-0-0-0-0-6-6-6-6-7-7-7-7-6-6-6-6----|


  PM--------------------------------------------------------------------|
|---------------------------------------------------------------------------|
|---------------------------------------------------------------------------|
|---------------------------------------------------------------------------|
|-----------------------------------------3-3-3-3-6-6-6-6-------------------|
|---------------------------------2-2-2-2-----------------5-5-5-5-2-2-2-2---|
|-0-0-0-0-6-6-6-6-1-1-1-1-4-4-4-4-------------------------------------------|


Gtr 2
plays to fade
  PM------------------------------------------------------------|
|--------------------------------------------------------------------|
|--------------------------------------------------------------------|
|--------------------------------------------------------------------|
|--------------------------------------------------------------------|
|--------------------------------------------------------------------|
|-0-0-0-0-6-6-6-6-1-1-1-1-4-4-4-4-0-0-0-0-6-6-6-6-7-7-7-7-6-6-6-6----|


  PM--------------------------------------------------------------------|
|---------------------------------------------------------------------------|
|---------------------------------------------------------------------------|
|---------------------------------------------------------------------------|
|-----------------------------------------6-6-6-6-9-9-9-9-------------------|
|---------------------------------5-5-5-5-----------------8-8-8-8-5-5-5-5---|
|-0-0-0-0-6-6-6-6-1-1-1-1-4-4-4-4-------------------------------------------|


Tablature Legend
----------------
 h   - hammer-on
 p   - pull-off
 b   - bend
 pb  - pre-bend
 r   - bend release (if no number after the r, then release immediately)
 /\  - slide into or out of (from/to "nowhere")
 s   - legato slide
 S   - shift slide
  - natural harmonic
[n]  - artificial harmonic
n(n) - tapped harmonic
 ~   - vibrato
 tr  - trill
 T   - tap
 TP  - trem. picking
 PM  - palm muting
\n/  - tremolo bar dip; n = amount to dip
 \n  - tremolo bar down
 n/  - tremolo bar up
/n\  - tremolo bar inverted dip
 =   - hold bend; also acts as connecting device for hammers/pulls
 <>  - volume swell (louder/softer)
 x   - on rhythm slash represents muted slash
 o   - on rhythm slash represents single note slash

Misc Legend
-----------
 |  - bar
||  - double bar
||o - repeat start
o|| - repeat end
*|  - double bar (ending)
 :  - bar (freetime)
 $  - Segno
 &  - Coda
Tempo markers -  = BPM(8/16=s8/s16), where s8 = swing 8ths, s16 = swing 16ths

Добавлено: 29.06.2013
Другие материалы по этой песне:
  • Аккорды и текст

Страница создана 09.05.2012
http://primanota.ru/annihilator/cold-blooded-chords.htm
Привет, Гость.
Предлагаем пройти революционный курс по гитаре.
Подарок от PrimaNota.Ru, забирай!