PrimaNota.ru - самый крупный в мире бесплатный архив песенных текстов, аккордов, табулатур и нот


Annihilator - Bad Child - текст песни, таба, видео

Регистрация Запомнить меня
Войти через:  Facebook Google Twitter Vk Yandex Mail.ru

Annihilator - Bad Child - текст песни, таба, видео

Печатать
Просмотров: 198
Авторы музыки: Jeff Waters
Авторы текста: Jeff Waters
Annihilator - Bad Child

tabbed by ol753
www.annihilatormetal.com
ol753_357lo@yahoo.co.uk

Tuning - E A D G B E


Both Gtrs
play 4 times, Gtr 3 Lead (to be added)
|-----------------------------------------------------------------|
|-----------------------------------------------------------------|
|-----------------------------2-----------------------------------|
|-----0-----0---2-----0-----0-2------0-----0---2-----0-----0------|
|---2-----0---0-----2-----0---0----2-----0---0-----2-----0--------|
|-0-----3---------0-----3--------0-----3---------0-----3-----2----|


Both Gtrs
|---------------------------------------------------------------|
|------------------------------------------------------3---3----|
|-----0-----0---0-----0-----0-0------0-----0---0-----0-0---0----|
|---2-----0---4-----2-----0---4----2-----0---4-----2---2---0----|
|-0-----3-----5---0-----3-----5--0-----3-----5---0-----3---2----|
|----------------------------------------------------------3----|


|-----------------------------------------------------------------|
|-----------------------------------------------------------------|
|-----------------------------2-----------------------------------|
|-----0-----0---2-----0-----0-2------0-----0---2-----0-----0------|
|---2-----0---0-----2-----0---0----2-----0---0-----2-----0--------|
|-0-----3---------0-----3--------0-----3---------0-----3-----2----|


Both Gtrs
|----------------------0h=2p0--------------------------------------|
|-------3------------3--------3------------------------------------|
|-----0----0-------2------------2----------------------------------|
|---4--------4---0--------------------0-----0---2-----0-----0------|
|-3------------3--------------------2-----0---0-----2-----0--------|
|---------------------------------0-----3---------0-----3-----2----|


|----------------------0h=2p0--------|
|-------3------------3--------3------|
|-----0----0-------2------------2----|
|---4--------4---0-------------------|
|-3------------3---------------------|
|------------------------------------|


|-----------------------------------------------------------------|
|-----------------------------------------------------------------|
|-----------------------------2-----------------------------------|
|-----0-----0---2-----0-----0-2------0-----0---2-----0-----0------|
|---2-----0---0-----2-----0---0----2-----0---0-----2-----0--------|
|-0-----3---------0-----3--------0-----3---------0-----3-----2----|


Both Gtrs, Gtr 3 (to be added)
|---------------------------------------------------------------|
|---------------------------------------------------------------|
|-------0-0-0-----------0-0-0----------0-0-0-----------0--------|
|-------0-0-0-2-2-------0-0-0-2--------0-0-0-2-2-------0---4----|
|-2-2-2-2-2-2-0-0-2-2-2-2-2-2-0--2-2-2-2-2-2-0-0-7p5---2---2----|
|-0-0-0-3-3-3-----0-0-0-3-3-3----0-0-0-3-3-3---------5-3--------|


Both Gtrs
                                         PM--|
|-------------------------------------------------------|
|-------------------------------------------------------|
|------0----2-------0----2-------0----2--------0--------|
|------0----2-------0----2-------0----2--------0---0----|
|-2--2-2----0--2--2-2----0--2--2-2----0--------2---0----|
|-0--0-3--0----0--0-3--0----0--0-3--0----0-0-0-3---2----|


Verse
Both Gtrs
play 4 times
|------------------------------|
|------------------------------|
|------0----2-2------0----2----|
|------0----2-2------0----2----|
|-2--2-2----0-0-2--2-2----0----|
|-0--0-3--0-----0--0-3--0------|


Both Gtrs
    PM|          PM|          PM|          PM|
|-------------------------------------------------------|
|-------------------------------------------------------|
|-------5---7--------5---4--------5---7------------0----|
|-------5---7--------5---5--------5---7--------5---0----|
|-0-0-0--------0-0-0--------0-0-0--------0-0-0-3---2----|
|--------------------------------------------------3----|


Gtr 3
|---0-----3--------0-----3--------0-----3------0-----0--------|
|-5---3-------3--5---3-------3--5---3-------3----3-------3----|
|-------5---4----------5---4----------5---4--------5-----4----|
|--------------------------------------------------------5----|
|-------------------------------------------------------------|
|-------------------------------------------------------------|


Both Gtrs
play twice
|------------------------------|
|------------------------------|
|------0----2-2------0----2----|
|------0----2-2------0----2----|
|-2--2-2----0-0-2--2-2----0----|
|-0--0-3--0-----0--0-3--0------|


Chorus
Both Gtrs
|-------------------------------------------------|
|-----------3-------------------------------------|
|-----------2---------------0----2-2------0----2--|
|-5---------0---------------0----2-2------0----2--|
|-3---------0----------2--2-2----0-0-2--2-2----0--|
|-------------------\--0--0-3--0-----0--0-3--0----|


Gtr 3
|--------------------0----|
|-------3----------3------|
|-----0----------2--------|
|---4----------0----------|
|-3-----------------------|
|-------------------------|


Both Gtrs
|----------------|
|-----------3----|
|-----------2----|
|-5---------0----|
|-3---------0----|
|----------------|


Gtr 3
|--------------------0----|
|-------3----------3------|
|-----0----------2--------|
|---4----------0----------|
|-3-----------------------|
|-------------------------|


Both Gtrs
|------------------------------------------------------------|
|-----------------------------------------3-3-3-------3-3----|
|------0----2-2------0----2-------0----2--2-2-2-2-2-2-2-2----|
|------0----2-2------0----2-------0----2--0-0-0-2-2-2-0-0----|
|-2----2----0-0-2----2----0--2----2----0--0-0-0-0-0-0-0-0----|
|-0--0-3--0-----0--0-3--0----0--0-3--0-----------------------|


Both Gtrs, Gtr 3 Lead (to be added)
|---------------------------------------------------------|
|---------------------------------------------------------|
|------0----2-2------0----2-------0----2-2------0---------|
|------0----2-2------0----2-------0----2-2------0----0----|
|-2----2----0-0-2----2----0--2----2----0-0-2----2----0----|
|-0--0-3--0-----0--0-3--0----0--0-3--0-----0--0-3--0-2----|


                                          PM--|
|------------------------------------------------------------|
|------------------------------------------------------------|
|------0----2-2------0----2-------0----2---------------------|
|------0----2-2------0----2-------0----2---------------------|
|-2----2----0-0-2----2----0--2----2----0--------5-8-7-6-5----|
|-0--0-3--0-----0--0-3--0----0--0-3--0----0-0-0-3-6-5-4-3----|


Both Gtrs
  PM--|   PM|    PM--|   PM|    PM--|   PM|    PM--|
|-------------------------------------------------------------|
|-------------------------------------------------------------|
|-------2-----2--------2-----4--------2-----2-----------------|
|-------2-----2--------2-----4--------2-----2-----------------|
|----------------------------------------------------7---7----|
|-2-2-2---2-2----2-2-2---2-2----2-2-2---2-2----2-2-2-5---4----|


Both Gtrs
|-------------------------------------------------|
|-----------3-------------------------------------|
|-----------2---------------0----2-2------0-------|
|-5---------0---------------0----2-2------0----0--|
|-3---------0----------2--2-2----0-0-2--2-2----0--|
|-------------------\--0--0-3--0-----0--0-3--0-2--|


|----------------|
|-----------3----|
|-----------2----|
|-5---------0----|
|-3---------0----|
|----------------|


  PM|   PM        PM--|
|---------3-------------5--------------|
|-----6-----6---------8----8-----------|
|---5---5-----5-----7--------7----2----|
|-3-------------3-5------------5--2----|
|---------------------------------0----|
|--------------------------------------|


Both Gtrs
play 3 times, Gtr 3 Lead (to be added)
|-----------------------------------------------------------------|
|-----------------------------------------------------------------|
|-----------------------------2-----------------------------------|
|-----0-----0---2-----0-----0-2------0-----0---2-----0-----0------|
|---2-----0---0-----2-----0---0----2-----0---0-----2-----0--------|
|-0-----3---------0-----3--------0-----3---------0-----3-----2----|


Both Gtrs
|---------------------------------------------------------------|
|------------------------------------------------------3---3----|
|-----0-----0---0-----0-----0-0------0-----0---0-----0-0---0----|
|---2-----0---4-----2-----0---4----2-----0---4-----2---2---0----|
|-0-----3-----5---0-----3-----5--0-----3-----5---0-----3---2----|
|----------------------------------------------------------3----|


|---------------------------------------------|
|---------------------------------------------|
|-----------------------------2---------------|
|-----0-----0---2-----0-----0-2------0-----0--|
|---2-----0---0-----2-----0---0----2-----0----|
|-0-----3---------0-----3--------0-----3------|


Gtr 1
  PM------------|     PM    PM         PM
|-------------------------------------------------|
|-------------------------------------------------|
|----------------------------------------0--------|
|----------------------------------------0---4----|
|-----------------7p5---7p5---5h7--7p5---2---2----|
|-0-0-0-0-0-0-0-0-----7-----7----------7-3--------|


Gtr 2
  PM------------|     PM    PM         PM
|-------------------------------------------------|
|-------------------------------------------------|
|----------------------------------------0--------|
|-----------------5p4---5p4---4p5--5p4---0---4----|
|---------------------5-----5----------5-2---2----|
|-0-0-0-0-0-0-0-0------------------------3--------|


Chorus
Both Gtrs
play twice, Gtr 3 Lead (to be added)
|-------------------------------------------------|
|-----------3-------------------------------------|
|-----------2---------------0----2-2------0----2--|
|-5---------0---------------0----2-2------0----2--|
|-3---------0----------2--2-2----0-0-2--2-2----0--|
|-------------------\--0--0-3--0-----0--0-3--0----|


Gtr 3
play twice
|--------------------0----|
|-------3----------3------|
|-----0----------2--------|
|---4----------0----------|
|-3-----------------------|
|-------------------------|


Both Gtrs
|------------------------------------|
|-------3-----------3-----------3----|
|-------2-----------2-----------2----|
|-5-----0-----5-----0-----5-----0----|
|-3-----0-----3-----0-----3-----0----|
|------------------------------------|


Gtr 3
play 3 times
|----------------------0=2p0---|
|-------3------------3-------3-|
|-----0----0-------2-----------|
|---4--------4---0-------------|
|-3----------------------------|
|------------------------------|


Both Gtrs
                                                   PM|
|-----------------------------------------------------------|
|-----------------------------------------------------------|
|------0----2-2------0----2-------0----2-2------0-----------|
|------0----2-2------0----2-------0----2-2------0-----------|
|-2----2----0-0-2----2----0--2----2----0-0-2----2-----------|
|-0--0-3--0-----0--0-3--0----0--0-3--0-----0--0-3--0-3-5----|


Gtr 1
      PM    PM        PM    PM     PM|   PM|
|----------------------------------------------------|
|----------------------------------------------------|
|----------------------------------------------------|
|----------------------------------------------------|
|-7p5---7p5-------7p5---7p5------7-----7--------2----|
|-----7-----7-3h5-----7-----7-3--5-3-0-5-3-0-3--0----|


Gtr 2
      PM    PM        PM    PM     PM|   PM|
|----------------------------------------------------|
|----------------------------------------------------|
|----------------------------------------------------|
|-----------------5p4---5p4--------------------------|
|-7p5---7p5-----------5-----5----7-----7--------2----|
|-----7-----7-3h5-------------3--5-3-0-5-3-0-3--0----|


Gtr 3 Lead (to be added)


Tablature Legend
----------------
 h   - hammer-on
 p   - pull-off
 b   - bend
 pb  - pre-bend
 r   - bend release (if no number after the r, then release immediately)
 /\  - slide into or out of (from/to "nowhere")
 s   - legato slide
 S   - shift slide
  - natural harmonic
[n]  - artificial harmonic
n(n) - tapped harmonic
 ~   - vibrato
 tr  - trill
 T   - tap
 TP  - trem. picking
 PM  - palm muting
\n/  - tremolo bar dip; n = amount to dip
 \n  - tremolo bar down
 n/  - tremolo bar up
/n\  - tremolo bar inverted dip
 =   - hold bend; also acts as connecting device for hammers/pulls
 <>  - volume swell (louder/softer)
 x   - on rhythm slash represents muted slash
 o   - on rhythm slash represents single note slash

Misc Legend
-----------
 |  - bar
||  - double bar
||o - repeat start
o|| - repeat end
*|  - double bar (ending)
 :  - bar (freetime)
 $  - Segno
 &  - Coda
Tempo markers -  = BPM(8/16=s8/s16), where s8 = swing 8ths, s16 = swing 16ths
Добавлено: 20.06.2013
Другие материалы по этой песне:
  • Аккорды и текст

Страница создана 29.03.2012
http://primanota.ru/annihilator/bad-child-chords.htm
Привет, Гость.
Предлагаем пройти революционный курс по гитаре.
Подарок от PrimaNota.Ru, забирай!