PrimaNota.ru - самый крупный в мире бесплатный архив песенных текстов, аккордов, табулатур и нот


The Devil Wears Prada - Dont Drink And Drance - таба, видео

Регистрация Запомнить меня
Войти через:  Facebook Google Twitter Vk Yandex Mail.ru

The Devil Wears Prada - Dont Drink And Drance - таба, видео

Печатать
Просмотров: 63
Transcribed by an unregistered user


 

 

Gtr I (D A D G B E) - 'Distortion'
Gtr II (D A D G B E) - 'Distortion Pan'
Gtr III (D A D G B E) - 'Piano'
Gtr IV (D A D G B E) - 'Pick Slide'


  Q=210
 2/4
  Gtr I
  H
|------|
|------|
|------|
|------|
|------|
|------|


   16/4
    Q  E E E E E E E E E E E E E E Q  E E E E E E e E e E e E e E
||------------------------------------------------------------------||
||o----------------------------------------------------------------o||
||------------------------------------------------------------------||
||------------------------------------------------1---1---1---1-----||
||o--------5-5-----4-4-----3-3------------5-5-----1---1---1---1----o||
||--0--3-3-----3-3-----3-3-----3-3-0--3-3-----3-3-0---0---0---0-----||


 4/4
        |-3-|
  Q  Q  Q Q Q
|----------------|
|----------------|
|----------------|
|----------------|
|----------------|
|-6--5--3-1S3----|


 12/4
  PM----|     PM----|     PM|      PM----|
  E E E E E E E E E E E E E E Q    E E E E E E Q
|--------------------------------------------------|
|--------------------------------------------------|
|--------------------------------------------------|
|--------------------------------------------------|
|---------5p0------------------------------5h6-----|
|-0-0-0-0-----0-0-0-0-5h8-0-0-3b4--0-0-0-0---------|


 4/4
        |-3-|
  Q  Q  Q Q Q
|----------------|
|----------------|
|----------------|
|----------------|
|----------------|
|-6--5--3-1S3----|


   12/4
    PM----|     PM    PM    PM|      PM----|
    E E E E E E E E E E E E E E Q    E E E E E E Q
||--------------------------------------------------|
||o-------------------------------------------------|
||--------------------------------------------------|
||--------------------------------------------------|
||o---------5p0---8p0---0h3------------------5h6----|
||--0-0-0-0-----0-----0-----0-0-3b4--0-0-0-0--------|


 4/4
        |-3-|
  Q  Q  Q Q Q     3x
|-----------------||
|----------------o||
|-----------------||
|-----------------||
|----------------o||
|-6--5--3-1S3-----||


   8/4
    Gtr II
    PM----|     PM    PM    PM|
    E E E E E E E E E E E E E E Q     3x
||------------------------------------||
||o----------------------------------o||
||------------------------------------||
||------------------------------------||
||o---------5p0---8p0---0h3----------o||
||--0-0-0-0-----0-----0-----0-0-3b4---||


  Gtr I
  PM----|     PM|
  E E E E E E E E W
|--------------------------|
|--------------------------|
|--------------------------|
|--------------------------|
|---------5p0--------------|
|-0-0-0-0-----0-0-0pb1r====|


  Q=135
 9/4
                         PM------------|
  Q  Q  Q  E E E Q  Q  E S S S S S S S S
|----------------------------------------|
|----------------------------------------|
|----------------------------------------|
|-6--5--3--1-3-1-6--5--3-----------------|
|-6--5--3--1-3-1-6--5--3-----------------|
|-6--5--3--1-3-1-6--5--3-0-0-0-0-0-0-0-0-|


                         Q=120
                         PM--------|
                         |-3-| |-3-|
  Q  Q  Q  E E E Q  Q  E e e e e e e
|------------------------------------|
|------------------------------------|
|------------------------------------|
|-6--5--3--1-3-1-6--5--3-------------|
|-6--5--3--1-3-1-6--5--3-------------|
|-6--5--3--1-3-1-6--5--3-0-0-0-0-0-0-|


    Q=135
                             PM------------|
     Q  Q  Q  E E E  Q  Q  E S S S S S S S S
||--------------------------------------------||
||o------------------------------------------o||
||--------------------------------------------||
||--10--9--7--5-7-5-10--9--7------------------||
||o-10--9--7--5-7-5-10--9--7-----------------o||
||--10--9--7--5-7-5-10--9--7-0-0-0-0-0-0-0-0--||


  Q=150
 10/4
                                              >
   PM----------------------------------------|
   q    q    q    q   S S S S  q    q    Q   +H
|---------------------------------------------------|
|---------------------------------------------------|
|---------------------------------------------------|
|---------------------------------------------------|
|-(0)--(0)--(0)--(0)----------(0)--(0)--(0)--(0)----|
|--0----0----0----0---0-0-0-0--0----0----0---(0)----|


  Q=135
 8/4
  PM-------------------------------------|
  S S S e S e H    E S S S S E S S S e S e
|------------------------------------------|
|------------------------------------------|
|------------------------------------------|
|------------------------------------------|
|------------------------------------------|
|-0-0-0-0-0-0--------0-0-0-0---0-0-0-0-0-0-|


  PM-----------------------------------------|
  S S S e S e  H     +E  S S S S E S S S e S e
|----------------------------------------------|
|----------------------------------------------|
|----------------------------------------------|
|----------------------------------------------|
|-------------(0)----(0)-----------------------|
|-0-0-0-0-0-0--0-----(0)-0-0-0-0---0-0-0-0-0-0-|


   9/4
    PM----------------------------------------------------|
    S S S S S S S e S e S S S S S S S S S S S S  q    q    q
||--------------------------------------------------------------||
||o------------------------------------------------------------o||
||--------------------------------------------------------------||
||--------------------------------------------------------------||
||o---------------------------------------------(0)--(0)--(0)--o||
||--0-0-0-0-0-0-0-0-0-0-0-0-0-0-0-0-0-0-0-0-0-0--0----0----0----||


  Q=170
 5/4
   Q   Q   H     +Q     Q  Q  H    +Q
|---------------------|-----------------|
|---------------------|-----------------|
|-10--10--10----(10)--|-9--9--9----(9)--|
|---------------------|-----------------|
|--8---8---8-----(8)--|-7--7--7----(7)--|
|---------------------|-----------------|


  Q=140
 8/4
  PM       PM----|   PM----|   PM----|   PM--------|
  e E  S S S S S S E S S S S E S S S S E S S e S S e
|----------------------------------------------------|
|----------------------------------------------------|
|----------------------------------------------------|
|-----10p0-------------------------------------------|
|-0-8------------------------------------------------|
|-0--------0-0-0-0---0-0-0-0---0-0-0-0---0-0-0-0-0-0-|


  PM      PM----|   PM----|   PM----|   PM--------|
  e E S S S S S S E S S S S E S S S S E S S e S S e
|---------------------------------------------------|
|---------------------------------------------------|
|---------------------------------------------------|
|-----7p0-------------------------------------------|
|-0-8-----------------------------------------------|
|-0-------0-0-0-0---0-0-0-0---0-0-0-0---0-0-0-0-0-0-|


  Gtr III
   E  E  E  E  E  E  E E  W
|------------------------------|
|------------------------------|
|-14-14-12-10-12-10-10-9-10----|
|------------------------------|
|-12-12-10--8-10--8--8-7--8----|
|------------------------------|


  W               W
|-----------------------------------------------------|
|-----------------------------------------------------|
|-7---------------------------------------------------|
|-----------------------------------------------------|
|-5---------------------------------------------------|
|-----------------------------------------------------|
|
| Gtr I
| PM----|   PM----|   PM----|   PM----|   PM--------|
| S S S S E S S S S E S S S S E S S S S E S S e S S e
|-----------------------------------------------------|
|-----------------------------------------------------|
|-----------------------------------------------------|
|-----------------------------------------------------|
|-----------------------------------------------------|
|-0-0-0-0---0-0-0-0---0-0-0-0---0-0-0-0---0-0-0-0-0-0-|


  Gtr I
  PM----|   PM----|   PM----|   PM----|   PM--------|
  S S S S E S S S S E S S S S E S S S S E S S e S S e
|-----------------------------------------------------|
|-----------------------------------------------------|
|-----------------------------------------------------|
|-----------------------------------------------------|
|-----------------------------------------------------|
|-0-0-0-0---0-0-0-0---0-0-0-0---0-0-0-0---0-0-0-0-0-0-|


  Gtr III
   E  E  E  E  E  E  E E  W
|------------------------------|
|------------------------------|
|-14-14-12-10-12-10-10-9-10----|
|------------------------------|
|-12-12-10--8-10--8--8-7--8----|
|------------------------------|


    Q=170
   9/4
    Gtr I
     Q   Q   H     +Q    W
||----------------------------|
||o---------------------------|
||--10--10--10----(10)--10----|
||----------------------------|
||o--8---8---8-----(8)---8----|
||----------------------------|


  Q  Q  H    +Q   +W
|-------------------------||
|------------------------o||
|-9--9--9----(9)--(9)-----||
|-------------------------||
|-7--7--7----(7)--(7)----o||
|-------------------------||


    Q=140
   8/4
      PM----|       PM----|       PM----|       PM      PM
    E S S S S S S E S S S S S S E S S S S E +S  S E +S  S E
||----------------------------------------------------------|
||o---------------------------------------------------------|
||----------------------------------------------------------|
||----------------------------------------------------------|
||o-5---------5h6p5-----------------------------------------|
||----0-0-0-0-------0-0-0-0-3h4p3-0-0-0-0-6-(6)-0-5-(5)-0-3-|


    PM----|       PM----|       PM      PM
  E S S S S S S E S S S S E +S  S E +S  S E H
|-------------------------------------------------||
|------------------------------------------------o||
|-------------------------------------------------||
|-------------------------------------------3-----||
|-5---------5h6p5---------------------------3----o||
|---0-0-0-0-------0-0-0-0-6-(6)-0-5-(5)-0-3-3-----||


                         Gtr IV
            |--3--|   |--3---|
  H    +E   q  q  q  +Q   Q  Q  E  Q
|-------------------------------------|
|-------------------------------------|
|----------15-15-15-(15)-20s15-17s22--|
|----------14-14-14-(14)-20s15-17s22--|
|-0----(0)-13-13-13-(13)-20s15-17s22--|
|-0----(0)---------------20s15-17s22--|


  Q=170
  Gtr I
  Q   E  E  E  E  E  E  E  E  E  E  E  E  E  E
|----------------------------------------------|
|----------------------------------------------|
|----15-15-15-15-15-15-15-15-15-15-15-15-15-15-|
|----14-14-14-14-14-14-14-14-14-14-14-14-14-14-|
|-0--13-13-13-13-13-13-13-13-13-13-13-13-13-13-|
|-0--------------------------------------------|


  Q   E  E  E  E  E  E  E  E  E  E  E  E  E  E
|----------------------------------------------|
|----------------------------------------------|
|----14-14-14-14-14-14-14-14-14-14-14-14-14-14-|
|----13-13-13-13-13-13-13-13-13-13-13-13-13-13-|
|-0--12-12-12-12-12-12-12-12-12-12-12-12-12-12-|
|-0--------------------------------------------|


  Q   E  E  E  E  E  E  E  E  E  E  E  E  E  E
|----------------------------------------------|
|----------------------------------------------|
|----15-15-15-15-15-15-15-15-15-15-15-15-15-15-|
|----14-14-14-14-14-14-14-14-14-14-14-14-14-14-|
|-0--13-13-13-13-13-13-13-13-13-13-13-13-13-13-|
|-0--------------------------------------------|


  Q   E  E  E  E  E  E  E  E  E  E H
|---------------------------------------|
|---------------------------------------|
|----16-16-16-16-16-16-16-16-16-16------|
|----15-15-15-15-15-15-15-15-15-15------|
|-0--14-14-14-14-14-14-14-14-14-14------|
|-0-------------------------------------|


 9/4
  Q  H    q  q  Q  Q  H
|--------------------------|
|--------------------------|
|--------------------------|
|--------------------------|
|-0-------0--0--0----------|
|-0-------0--0--0----------|


  Q  H    q  q  Q  Q  H
|---------------------0----|
|---------------------4----|
|--------------------------|
|--------------------------|
|-0-------0--0--0----------|
|-0-------0--0--0----------|


  Q  H    q  q  Q  Q  H
|--------------------------|
|--------------------------|
|--------------------------|
|--------------------------|
|-0-------0--0--0----------|
|-0-------0--0--0----------|


  Q  H    q  q  W
|--------------------|
|--------------------|
|--------------------|
|--------------------|
|-0-------0--0--0----|
|-0-------0--0--0----|


  Q=140
 6/4
     PM|    PM|    PM|    PM|    PM|    PM|
   E S S  E S S  E S S  E S S  E S S  E S S
|-------------------------------------------|
|-------------------------------------------|
|-15-----15-----15-----15-----15-----15-----|
|-14-----14-----14-----14-----14-----14-----|
|-13-----13-----13-----13-----13-----13-----|
|----0-0----0-0----0-0----0-0----0-0----0-0-|


 7/4
     PM|    PM|    PM|
   E S S  E S S  E S S  H     +Q   Q
|--------------------------------------|
|--------------------------------------|
|-14-----14-----14-----14----(14)------|
|-13-----13-----13-----13----(13)--4\--|
|-12-----12-----12-----12----(12)--4\--|
|----0-0----0-0----0-0-------------4\--|


   8/4
    S S e S S e Q  S S e S S e S S e E E E E
||-------------------------------------------|
||o------------------------------------------|
||-------------------------------------------|
||-------------------------------------------|
||o-0-0-0-0-0-0----0-0-0-0-0-0-0-0-0---------|
||--0-0-0-0-0-0----0-0-0-0-0-0-0-0-0-6s2s6s2-|


  S S e S S e Q  S S e S S e S S e  S   S   S   S   Q
|----------------------------------<4>-------------------||
|--------------------------------------<4>--------------o||
|------------------------------------------<4>-----------||
|----------------------------------------------<4>-------||
|-0-0-0-0-0-0----0-0-0-0-0-0-0-0-0-----------------<4>--o||
|-0-0-0-0-0-0----0-0-0-0-0-0-0-0-0-----------------------||


  W
|------*|
|------*|
|------*|
|------*|
|------*|
|------*|




--------------------------------------------------------------------------------


Duration Legend
---------------
W - whole; H - half; Q - quarter; E - 8th; S - 16th; T - 32nd; X - 64th; a - acciaccatura
+ - note tied to previous; . - note dotted; .. - note double dotted
Uncapitalized letters represent notes that are staccato (1/2 duration)
Irregular groupings are notated above the duration line
Duration letters will always appear directly above the note/fret number it represents the
duration for.  Duration letters with no fret number below them represent rests.  Multi-
bar rests are notated in the form Wxn, where n is the number of bars to rest for.  Low
melody durations appear below the staff

Tablature Legend
----------------
 h   - hammer-on
 p   - pull-off
 b   - bend
 pb  - pre-bend
 r   - bend release (if no number after the r, then release immediately)
 /\  - slide into or out of (from/to "nowhere")
 s   - legato slide
 S   - shift slide
 - natural harmonic
[n]  - artificial harmonic
n(n) - tapped harmonic
 ~   - vibrato
 tr  - trill
 T   - tap
 TP  - trem. picking
 PM  - palm muting
\n/  - tremolo bar dip; n = amount to dip
 \n  - tremolo bar down
 n/  - tremolo bar up
/n\  - tremolo bar inverted dip
 =   - hold bend; also acts as connecting device for hammers/pulls
 <> - volume swell (louder/softer)
 x   - on rhythm slash represents muted slash
 o   - on rhythm slash represents single note slash

Misc Legend
-----------
 |  - bar
||  - double bar
||o - repeat start
o|| - repeat end
*|  - double bar (ending)
 :  - bar (freetime)
 $  - Segno
 &  - Coda
Tempo markers -  = BPM(8/16=s8/s16), where s8 = swing 8ths, s16 = swing 16ths

Добавлено: 12.06.2013
Другие материалы по этой песне:
  • Аккорды и текст

Страница создана 12.06.2013
http://primanota.ru/the-devil-wears-prada/dont-drink-and-drance-chords.htm
Привет, Гость.
Предлагаем пройти революционный курс по гитаре.
Подарок от PrimaNota.Ru, забирай!