PrimaNota.ru - самый крупный в мире бесплатный архив песенных текстов, аккордов, табулатур и нот


The Devil Wears Prada - Plagues - таба, видео

Регистрация Запомнить меня
Войти через:  Facebook Google Twitter Vk Yandex Mail.ru

The Devil Wears Prada - Plagues - таба, видео

Печатать
Просмотров: 121
alright this is my first album tab so i figured i would make it a good one lol. 
some of these tabs are from me and others not so please check it out and...

ENJOY!!!!!! :) 


		       The Devil Wears Prada
----------------------------------------------------------------------------
Tabbed by: BILLYutm

Song: Goats On A Boat

Tuning:Drop-D

e|------------------------------------------------------------------------|
B|------------------------------------------------------------------------|
G|------------------------------------------------------------------------|
D|-0-00-00-00-0-00-0-0-1-0-00-00-00-0-00-00-/12\-0-00-00-00-0-00-0-0-1----|
A|-0-11-00-11-0-11-0-1-1-0-11-00-11-0-11-00-/12\-0-11-00-11-0-11-0-1-1----|
D|-0-00-00-00-0-00-0-3-1-0-00-00-00-0-00-00-/12\-0-00-00-00-0-00-0-3-1----|

e|----------------------------------|
B|----------------------------------|
G|----------------------------------|
D|-0-00-00-00-0-00-0-0-1-0-1-0------|
A|-0-11-00-11-0-11-0-1-1-1-1-0------|
D|-0-00-00-00-0-00-0-3-1-3-1-0------|

e|---------------------------------------------------------|
B|---------------------------------------------------------|
G|---------------------------------------------------------|
D|-0-000-000----000-000-------0-000-000----0-000-000-------|
A|-0-000-000-1p-000-000-5h6p5-0-000-000-1p-0-000-000-------|
D|-0-000-000----000-000-------0-000-000----0-000-000-2h3p2-| play twice

e|-------------------------------------------|
B|-------------------------------------------|
G|-------------------------------------------|
D|-0-0000----0000-------0-0000----0000-------|
A|-0-0000-1p-0000-5h6p5-0-0000-1p-0000-------|
D|-0-0000----0000-------0-0000----0000-2h3p2-|play twice

e|------------------------------------------------------------------------|
B|------------------------------------------------------------------------|
G|------------------------------------------------------------------------|
D|------------------------------------------------------------------------|
A|---5p-7p-8p-10p-8p-7p-5---5p-7p-8p-10p-8p-7p-5---5p-7p-8p-10p-8p-7p-5---|
D|-0----------------------0----------------------8----------------------8-|

e|----------------------|
B|----------------------|
G|----------------------|
D|----------------------|
A|-5p-7p-8p-8h10-7h8-5--|
D|----------------------| play twice

e|--------------------------------------------------------------------|
B|--------------------------------------------------------------------|
G|--------------------------------------------------------------------|
D|--0-000-000----000-000-10p-11p-0-000-000-8t-7t-5-8-888888888-777777-|
A|--0-000-000-8p-000-000---------0-000-000---------8-888888888-777777-|
D|--0-000-000----000-000---------0-000-000---------8-888888888-777777-|

you can figure out the strumming here

e|-------------------------------------------------------------------------|
B|-------------------------------------------------------------------------|
G|-------------------------------------------------------------------------|
D|--------0-000-000----000-000-10p-11p-0-000-000-8t-7t-5-8-888888888-777777-
A10t-8t-7-0-000-000-8p-000-000---------0-000-000---------8-888888888-777777-
D|--------0-000-000----000-000---------0-000-000---------8-888888888-777777-
you can figure out the strumming here too
e|--------------17------18------------------------------------------------|
B|----------------1617----1718-----------------------------------7h8p7----|
G|--------------------15------18----------------------------7h8p7---------|
D|---0000-00-00--------------------0000------0000-00-00-7h8p7---------0000-|
A|---0000-00-00--------------------0000------0000-00-00---------------0000-|
D|---0000-00-00--------------------0000-/12\-0000-00-00---------------0000-|

e|---------------17------18---------------------------------------------|
B|-----------------1617----1718-------------------------------7h8p7-----|
G|---------------------15------18------------------------7h8p7----------|
D|---0000-00-00-------------------0000---0000-00-00-7h8p7-----------0000|
A|---0000-00-00-------------------0000---0000-00-00-----------------0000|
D|---0000-00-00-------------------0000---0000-00-00-----------------0000|

e|--------------------------------------|
B|--------------------------------------|
G|--------------------------------------|
D|--8-10-0------------------------------|
A|--8-10-0------------------------------|
D|--8-10-0------------------------------| play twice

You can figure out the strumming here

e|------------------------------------------------------------------|
B|------------------------------------------------------------------|
G|------------------------------------------------------------------|
D|--8-10-8p0-00-0-8p0-00-0-000-000-8p0-00-0-8p0-00-0-000-000-8-10---|
A|--8-10-8p0-00-0-8p0-00-0-000-000-8p0-00-0-8p0-00-0-000-000-8-10---|
D|--8-10-8p0-00-0-8p0-00-0-000-000-8p0-00-0-8p0-00-0-000-000-8-10---|

e|-------------------------------------------------------|
B|-------------------------------------------------------|
G|-------------------------------------------------------|
D|--8p0-00-0-8p0-00-0-000-000-8p0-00-0-8p0-00-0-000-000--|
A|--8p0-00-0-8p0-00-0-000-000-8p0-00-0-8p0-00-0-000-000--|
D|--8p0-00-0-8p0-00-0-000-000-8p0-00-0-8p0-00-0-000-000--|

e|------------------------------------------|
B|------------------------------------------|
G|------------------------------------------|
D|--10p0-00-0-10p0-00-0-000-000-10p0-00-00--|
A|--10p0-00-0-10p0-00-0-000-000-10p0-00-00--|
D|--10p0-00-0-10p0-00-0-000-000-10p0-00-00--|

e|----------------------------------------------------------------------|
B|----------------------------------------------------------------------|
G|----------------------------------------------------------------------|
D|------------------------0-00000-000-----------------------------------|
A|-8p008p008p07p007p007p0-0-00000-000-8p008p008p07p007p007p08p008p008p0-|
D|------------------------0-00000-000-----------------------------------|

e|-------------------------------------------------------------------------|
B|-------------------------------------------------------------------------|
G|-------------------------------------------------------------------------|
D|-0------------------------0-00000-000------------------------0-00000-000-|
A|-0-8p008p008p07p007p007p0-0-00000-000-8p008p008p07p007p007p0-0-00000-000-|
D|-0------------------------0-00000-000------------------------0-00000-000-|

e|------------------------------------------------------------|
B|------------------------------------------------------------|
G|------------------------------------------------------------|
D|------------------------------------------------------------|
A|-8p008p008p07p007p007p0-8p08p08-7p07p07-8p08p08-7p07p07-5---|
D|------------------------------------------------------------|

e|------------------------------------------------------|
B|------------------------------------------------------|
G|------------------------------------------------------|
D|-0-00000--00000-00000--00000--00000-00000-0-0-00000---|
A|-0-00000--00000-00000--00000--00000-00000-0-0-00000---|
D|-0-00000--00000-00000--00000--00000-00000-0-0-00000---|

e|---------------------------------------------------------------|
B|---------------------------------------------------------------|
G|---------------------------------------------------------------|
D|-00000-00000--00000--00000-00000-----------0------0----------0-|
A|-00000-00000--00000--00000-00000-8888-7777-0-8888-0-7h888888-0-|
D|-00000-00000--00000--00000-00000-----------0------0----------0-|

e|-------------------------------------------------------------------|
B|-------------------------------------------------------------------|
G|-------------------------------------------------------------------|
D|--------------------0-------------------------------------------00-|
A|-888888101010107777-0-10p0-8p0-8p0-7p0-5h7-10p0-8p0-7h8-7h8-7h8-00-|
D|--------------------0-------------------------------------------00-|

e|------------------------------------------------------|
B|------------------------------------------------------|
G|------------------------------------------------------|
D|-------------------------------------------00---------|
A|-10p0-8p0-8p0-7p0-5h7-10p0-8p0-7h8-7h8-7h8-00---------|
D|-------------------------------------------00---------|

e|--------------------------------------------------------------|
B|--------------------------------------------------------------|
G|--------------------------------------------------------------|
D|----------------------00---------------------00---------------|
A|--8p0-7p0-5p0-3p0-3h5-00-8p0-7p0-5h7-5h7-5h7-00---------------|
D|----------------------00---------------------00---------------|

e|--------------------------------------------------------------------|
B|--------------------------------------------------------------------|
G|--------------------------------------------------------------------|
D|----------------------00---------------------0--------0-----------0-|
A|--8p0-7p0-5p0-3p0-3h5-00-8p0-7p0-5h7-5h7-5h7-0-888888-0-7h8888888-0-|
D|----------------------00---------------------0--------0-----------0-|

e|--------------------------------------------------------------------|
B|--------------------------------------------------------------------|
G|--------------------------------------------------------------------|
D|--------------------------------------------------------------------|
A|--88888810101010777777755555555557777777788888888101010101010-------|
D|--------------------------------------------------------------------|

e|------------------|
B|------------------|
G|------------------|
D|--0-0000-0000-----|
A|--0-0000-0000-----|
D|--0-0000-0000-----|

| t  tremo
| /  slide up
| \  slide down
| h  hammer-on
| p  pull-off
| ~  vibrato
| +  harmonic
| x  Mute note
======================================================================

Song: Number Three Never Forget
Artist: The Devil Wears Prada
Tabbed by: Doug Coleman

0:01-0:20
You've compromised your doctrines...
e|---------------------------------|
b|---------------------------------|
g|---------------------------------|
d|-8-------10-------0~--0~--0~--0~-| X2
a|-8-(x12)-10-(x12)-0~--0~--0~--0~-|
D|-8-------10-------0~--0~--0~--0~-|

lead riff
e|---------------------------------------------|
b|-----11p10-----------------13-------------15-|
g|-10---------10/12-12-14-15---14--10/12/15----|
d|---------------------------------------------|
a|---------------------------------------------|
D|---------------------------------------------|

e|-----------------------------------------------|
b|-----11p10-------------------------------------|
g|-10--------10/12-12-14-15----------------------|
d|--------------------------15-14-12----12-------|
a|-----------------------------------15----15-12-|
D|-----------------------------------------------|

0:21-0:27
Come back to your faith, come back to grace...
e|----------------------------------------------|
b|----------------------------------------------|
g|-14----------------14----------------14-------|
d|--X-(x10)--0-0-0-0--X-(x10)-0-0-0-0---X-(x10)-|
a|-12--------0-0-0-0-12-------0-0-0-0--12-------|
D|-----------0-0-0-0----------0-0-0-0-----------|

0:28-0:43
e|----------------|---------------------------------------|
b|----------------|---------------------------------------|
g|----------------|---------------------------------------|
d|-000--000--000--|-000--000--0--0--000--000--------------|
a|-000--000--000--|-000--000--0--0--000--000--5h8p5-4h7p4-|
D|-000--000--000--|-000--000--0--0--000--000--------------|
                                              (End 2nd time w/ this)
e|---------------------------------------|    |----------------|
b|---------------------------------------|    |----------------|
g|---------------------------------------|    |----------------|
d|-000--000--0--0--000--000--------------| X2 |----------------|
a|-000--000--0--0--000--000--8--5--7--4--|    |-8--5--7--4--5~-|
D|-000--000--0--0--000--000--------------|    |----------------|

He sang with us
Gt.1  0:44-0:58                Gt.2  0:44-0:58
e|---------------------|      |-------------10^11-(x10)-|
b|---------------------|      |-------------------------|
g|-------------7b------|      |-------------------------|
d|-0~----0~----X-(x10)-| X2   |-0~----0~----------------| X2
a|-0~----0~----5-------|      |-0~----0~----------------|
D|-0~----0~------------|      |-0~----0~----------------|

0:59-1:26
The death of obsession
e|-----------------------|
b|-----------------------|
g|-----------------------|
d|-8------5------0-------| X2
a|-8-(x8)-5-(x8)-0-(x16)-|
D|-8------5------0-------|

1:27-1:52
Such blackness portrays the love of a machine
Gt.1
e|------------------------------------------------------------------------|
b|------------------------------------------------------------------------|
g|-14-14--14-14--14-14--14-14--14--14--12-12--12-12--12-12--12-12--12--12-|
d|--X--X---X--X---X--X---X--X---X---X---X--X---X--X---X--X---X--X---X---X-|
a|-12-12--12-12--12-12--12-12--12--12--10-10--10-10--10-10--10-10--10--10-|
D|------------------------------------------------------------------------|

e|----------------------------------------------------|
b|-------------------------------------------------10-|
g|-10-10--10-10--10-10--10-10--10--10--10-9-7---------|
d|-X--X---X--X---X--X---X--X---X---X----------10-8----|
a|-8--8---8--8---8--8---8--8---8---8------------------|
D|----------------------------------------------------|

Gt.2
e|-------------------------------------------------------------------------|
b|-------------------------------------------------------------------------|
g|-------------------------------------------------------------------------|
d|8-8--8-8--8-8--8-8--8-8--8--5-5--5-5--5-5--5-5--5-5--5--0--0-0--0-0--0-0-|
a|8-8--8-8--8-8--8-8--8-8--8--5-5--5-5--5-5--5-5--5-5--5--0--0-0--0-0--0-0-|
D|8-8--8-8--8-8--8-8--8-8--8--5-5--5-5--5-5--5-5--5-5--5--0--0-0--0-0--0-0-|

1:53-1:58
e|------------------------------|
b|------------------------------|
g|------------------------------|
d|-0-0-0-0-0-0-0-0--0-0-0-0-0-0-| X2
a|-0-0-0-0-0-0-0-0--0-0-0-0-0-0-|
D|-0-0-0-0-0-0-0-0--0-0-0-0-0-0-|

1:59-2:12
So how can you be so proud?
e|--------------------------------|
b|--------------------------------|
g|--------------------------------|
d|-0-0-0-0-0-0-0-0~--0-0-0-0-0-0~-| X4
a|-0-0-0-0-0-0-0-0~--0-0-0-0-0-0~-|
D|-0-0-0-0-0-0-0-0~--0-0-0-0-0-0~-|

2:13-2:16
Pray to the heavens...
e|------------------------|
b|------------------------|
g|------------------------|
d|-8--7--5--7--5--3--5--8-|
a|-8--7--5--7--5--3--5--8-|
D|-8--7--5--7--5--3--5--8-|

2:18-2:46
With whatever it takes
e|---------------------------------|
b|---------------------------------|
g|--------------10-10-10--10-10-10-|
d|-0--8-8-7--0--X--X--X---X--X--X--|
a|-0--8-8-7--0--8--8--8---8--8--8--|
D|-0--8-8-7--0---------------------|

e|-------------------------------------------------------|
b|-------------------------------------------------------|
g|-------------------------------------------------------|
d|------------------------------------5-7-8------5-------|  X2
a|------------------------------------5-7-8-(x8)-5-(x8)--|
D|-8p0-7p0-5p0-8p0-7p0-5p0-5-7-8------5-7-8------5-------|

                                      (End part with this)
e|---------------------------------|    |--------------|
b|---------------------------------|    |--------------|
g|--------------10-10-10--10-10-10-|    |--------------|
d|-0--8-8-7--0--X--X--X---X--X--X--| X3 |-0--8-8-7--10-|
a|-0--8-8-7--0--8--8--8---8--8--8--|    |-0--8-8-7--10-|
D|-0--8-8-7--0---------------------|    |-0--8-8-7--10-|

2:47-2:56
e|----------------------------------|
b|----------------------------------|
g|----------------------------------|
d|-0----0----8----8~----------------|
a|-0----0----8----8~--(pick scrape)-|
D|-0----0----8----8~----------------|

2:57-3:14
I wish to shine this light back upon you
e|-------------------------------------------|
b|-------------------------------------------|
g|-------------------------------------------|
d|-------------------------------------------| X4
a|-----8-8p7---7-7h8------8-8p7-10-8p7h8p7/5-|
D|-0-0-------0--------0-0--------------------|

3:15-3:33
You've compromised your doctrines
e|--------------------------------------------------------|
b|--------------------------------------------------------|
g|--------------------------------------------------------|
d|-8-------10-------0~--0~--0~--0~--8-------10-------0--0-|
a|-8-(x12)-10-(x12)-0~--0~--0~--0~--8-(x12)-10-(x12)-0--0-|
D|-8-------10-------0~--0~--0~--0~--8-------10-------0--0-|


Lyrics:
You've compromised your doctrines
You've surrendered yourself to fashion.
Come back to your faith; Come back to grace.
He sang with us and loved others.
The death of obsession.
The blood relationship, creates such a rotten demise.
Oh Lord.
Such blackness portrays the love of a machine.
I did not want you to join this culture.
So how can you be so proud?
Pray to the heavens, with whatever it takes.
I wish to shine this light back upon you.
It's obvious that apocalyptic barriers (will give) no mercy to fashion.
You've compromised your doctrines.
You've surrendered yourself now.
=====================================================================

tabbed by: guitardude96

Song: HTML Rulez D00D

/ - slide up
\ - slide down
. - palm mute
b - bend string
* - harmonic pitch/screech
~ - let ring

0:00-0:10

e|------------------------------------|--------------------------|
B|------------------------------------|--------------------------|
G|-9-9--9999--99-9/10-7-7--7777-77-777|-9-9--9999-99-999--7-7-7~~|
D|-x-x--xxxx--xx-x/x--x-x--xxxx-xx-xxx|-x-x--xxxx-xx-xxx--x-x-x--|
A|-7-9--7777--77-7/8--5-5--5555-55-555|-7-7--7777-77-777--5-5-5~~|
D|------------------------------------|--------------------------|


0:10-0:20
e|----------------------------|----------|---------------|
B|----------------------------|----------|---------------|
G|---------------------141414-|---141414-|---121212121212|
D|-8888888888888888----x-x-x--|-0-x-x-x--|-0-x-x-x-x-x-x-|
A|-8888888888888888----121212-|-0-121212-|-0-101010101010|
D|-8888888888888888-----------|-0--------|-0-------------|
                            x2         x3

0:20-0:31
e|-----------------------------------|---------|---------------|
B|-----------------------------------|---------|---------------|
G|-----------------------------------|---141414|---121212121212|
D|-3333333333333333-5555555555555555-|-0-x-x-x-|-0-x-x-x-x-x-x-|
A|-3333333333333333-5555555555555555-|-0-121212|-0-101010101010|
D|-3333333333333333-5555555555555555-|-0-------|-0-------------|
                                            x3        

you can figure out the strumming...

0:32-0:36
e|----|
B|----|
G|----|
D|-12-|
A|-12-|  
D|-12-|
             

0:36-0:47                                    
e|----------------------------------|
B|----------------------------------|
G|-7777-7/10\99-7-5-3~3~3/10101010--|
D|-xxxx-x-x--xx-x-x-x-x-x-x-x-x-x---|  x2
A|-5555-5/8 \77-5-3-1~1~1/8-8-8-8---|
D|----------------------------------|
                                               


0:47-0:52
e|----|
B|----|
G|----|
D|-0~-|
A|-0~-|
D|-0~-|


0:53-1:14 
e|------------------------------------|
B|------------------------------------| 
G|------------------------------------|    
D|-12-------10-------8-------12-------|  x2 
A|-12--X16--10--X16--8--X16--12--X16--| 
D|-12-------10-------8-------12-------|


figure out the strumming...

1:14-1:36
e|---|
B|---|
G|---|
D|---| 
A|-0-|
D|-0-|
   .

1:36-1:38
e|---------------------|
B|---------------------|
G|---------------------|
D|---------------------|
A|-0-5-3-0-2-0-3-0-----|
D|-0-5-3-0-2-0-3-0-3b*-|
   . . . . . . . .

1:38-1:52
e|------|
B|------|
G|------|   x4
D|------| 
A|-0-0~-|
D|-0-0~-|
   .

2:08-2:37
e|----------------------------------|
B|----------------------------------|
G|-14-------12-------15-------14----|
D|-x--X16---x--X16---x--X16---x--X16|  x2
A|-12-------10-------13-------12----|
D|----------------------------------|
                                  

2:37-2:42
e|----|
B|----|
G|----|
D|-0~-|
A|-0~-|
D|-0~-|


2:42-3:09                                                   
e|------------------------------------------------------------|
B|------------------------------------------------------------|
G|------------------------------------------------------------|
D|-----10p0-------12p0------5p0-------------10p0--10~10-555---|
A|-0-0-----8p0-0------8p0-0----8p0---0-0-----8p0--10~10-555---|
D|-0-0---------0----------0----------0-0----------10~10-555---|
   . .         .          .          . .                    x5

3:09-3:11
e|-----------------------------|
B|-----------------------------|
G|-----------------------------|
D|-----------------------------|
A|-0~~-------------------------|
D|-0~~-------------------------|
                               

you can figure out the strumming...

3:12-3:25
e|-----------------------------------|
B|-----------------------------------|
G|-----------------------------------|
D|-----------------------------------|
A|-0---------------------------------|
D|-0---------------------------------|
   .

3:26-3:33
e|--------------------------|
B|--------------------------|
G|--------------------------|
D|--------------------------|
A|-2------------------------|
D|-2------------------------|
   .

3:33-3:40
e|------------------------------------|
B|------------------------------------|
G|------------------------------------|
D|------------------------------------|
A|-0----------------------------------|
D|-0----------------------------------|
   .

3:41
e|----|
B|----|
G|----|
D|-0~-|
A|-0~-|
D|-0~-|
====================================================================

HEY JOHN, WHATS YOUR NAME AGAIN?
THE DEVIL WEARS PRADA!

Tabbed by: www.myspace.com/chiefwiggums83
Email:therabbit99999@yahoo.com

Visual Learners: http://www.youtube.com/watch?v=udvXG2KjyNQ


Tuning:Drop Dizzle (D A D G B E)

Intro - 0:00-0:09
"The concept of fashion is the one to blame:"
e|-------------------------------------------|
B|-------------------------------------------|
G|-------------------------------------------|
d|-0~------8~------5~-----0~------10~----10~-|
A|-0~------8~------5~-----0~------8~-----8~--|
D|-0~------8~------5~-----0~------8~-----8~--|


0:10-0:19
"Painting the portrait of conviction-less existence"
e|-------------------------------------------------------------|
B|-------------------------------------------------------------|
G|-------------------------------------------------------------|
d|-------------------------------------------------------------|
A|-5---7----8p7--4---5---7p5---5---7---8p7--13-12-10-0-7-8-10--|
D|--000--000---00-000-000----00-000-000------------------------|
P.M ...  ...   .. ... ...    .. ... ...


0:20-0:27
Well, it must be difficult,
     
Guitar 1
e|------|
B|-1010-|
G|-x-x--| (x24)
d|-8-8--|
A|------|
D|------|

Guitar 2
e|---------------------------|
B|---------------------------|
G|-10-------12-------9-------|
d|-x--(x16)-x--(x16)-x-(x16)-|
A|-8--------10-------7-------|
D|---------------------------|


0:28-0:30
Being so gorgeous
e|-----------|
B|-----------|
G|-----------|
d|--------0~-|
A|-0-0-00-0~-|
D|-0-0-00-0~-|
P.M. . ..


0:30-0:48
Well it must be difficult, claiming to be the kings and queens
e|---------------------------------------------------------|
B|---------------------------------------------------------|
G|---------------------------------------------------------|
d|-8-88888888-8-88888888-10-101010101010-10-10101010101010-|
A|-8-88888888-8-88888888-10-101010101010-10-10101010101010-|
D|-8-88888888-8-88888888-10-101010101010-10-10101010101010-|

e|-------------------------------|
B|-------------------------------|
G|-------------------------------|
d|-5-55555555-0-0000000-5-555555-|
A|-5-55555555-0-0000000-5-555555-|
D|-5-55555555-0-0000000-5-555555-|

e|----------------------------------------------------------------------|
B|----------------------------------------------------------------------|
G|----------------------------------------------------------------------|
d|-8-888888888-8-88888888-10-10101010-10-10101010-5-55555555-5-55555555-|
A|-8-888888888-8-88888888-10-10101010-10-10101010-5-55555555-5-55555555-|
D|-8-888888888-8-88888888-10-10101010-10-10101010-5-55555555-5-55555555-|

0:48-0:51
e|-----------|
B|-----------|
G|-----------|
d|--------0~-|
A|-0-0-00-0~-|
D|-0-0-00-0~-|
P.M. . ..

0:51-1:11
This shall pass, megalomania
e|--------------------------------------|
B|--------------------------------------|
G|----------------------------8888-7777-|
d|----------------------------xxxx-xxxx-|
A|-0-13vb-0-0-------0-13vb-0--6666-5555-|
D|-0--------0-7vb-0-0-------------------|

So there's no confusion, these are played one
after another, not at the same time
e|---------------------------------------------|
B|---------------------------------------------|
G|---------------------------12121212-11111111-|
d|---------------------------x-x-x-x--x-x-x-x--|
A|-0-13vb-0-0-----0---13vb-0-10101010-9-9-9-9--|
D|-0--------0-7vb-0-0--------------------------|

1:11-1:19
This was kinda tricky...
     
e|----|
B|-10-|
G|-x--| Strum freely
d|-8--|
A|----|
D|----|

At 1:14...
Guitar 2
e|----|
B|----|
G|----|
d|-0~-|
A|-0~-|
D|-0~-|

1:22-1:32
Congratulations on mutilation
e|------------------------------------|
B|------------------------------------|
G|------------------------------------|
d|------------------------------------|
A|-0~--00~--0~---0~---000-000-000-000-|
D|-0~--00~--0~---0~---000-000-000-000-|
P.M.   ..   .    .    ... ... ... ...

1:32-1:52
for a life, for a life, life
e|-------------------------------|
B|-------------------------------|
G|-------------------------------|
d|-------------------------------|
A|-000-000----00-000-000-000-000-|
D|-000-000----00-000-000-000-000-|
P.M... ...    .. ... ... ... ...

1:42-1:52
Life, life
e|-----------------------------------|
B|-----------------------------------|
G|-7-------9-------12-------15-------|
d|-x-(x16)-x-(x16)-x--(x16)-x--(x16)-|
A|-5-------7-------10-------13-------|
D|-----------------------------------|


1:52-2:34
Im going to hope for you, im going to pray for you
Guitar 1                   x4
e|--------------------------|
B|--------------------------|
G|--------------------------|
d|-8-------10-------5-------|
A|-8-(x16)-10-(x16)-5-(x32)-|
D|-8-------10-------5-------|

Guitar 2
Come in at 2:03                                                           x3
e|-------------------------------------------------------------------------|
B|-------------------------------------------------------------------------|
G|-10-----12------14----9------10-----12-----7------9------12------17------|
d|-x-(x8)-x-(x4)--x(x4)-x-(x8)-x-(x4)-x-(x4)-x-(x8)-x-(x4)-x--(x4)-x-(x16)-|
A|-8------10------12----7------8------10-----5------7------10------15------|
D|-------------------------------------------------------------------------|

2:35-2:44
We all find ourselves terribly weak
e|-------------------------------------------------|
B|-------------------------------------------------|
G|-------14------------15------------14------------|
d|-0-0-0-x--(x8)-0-0-0-x--(x8)-0-0-0-x--(x8)-0-0-0-|
A|-0-0-0-12------0-0-0-13------0-0-0-12------0-0-0-|
D|-0-0-0---------0-0-0---------0-0-0---------0-0-0-|

2:44-2:46
e|-------------------------|
B|-15-14-------------------|
G|-------15-14-------------|
d|-------------15-14-------|
A|-------------------15-14-|
D|-------------------------|

2:46-2:58
Heres an offering
e|-------------------|
B|-------------------|
G|-------------------|
d|-------------------|
A|-000--000000-0-0-0-|
D|-000--000000-0-0-0-|
P.M...  ...... . . .

2:59
e|--------------------|
B|--------------------|
G|--------------------|
d|--------------------|   ??
A|-10h12p8p0-8h10p7p0-|
D|--------------------|

2:59-Done.
Offering.
e|-------------------------------------------------------------------------|
B|-------------------------------------------------------------------------|
G|-------------------------------------------------------------------------|
d|-------------------------------------------------------------------------|
A|-0000-000000-0-0-0-3-2-1-0000-000000-0-0-0-------0000-000000-0-0-0-3-2-1-|
D|-0000-000000-0-0-0-3-2-1-0000-000000-0-0-0-<3b^>-0000-000000-0-0-0-3-2-1-|
P.M.... ...... . . . . . . .... ...... . . .       .... ...... . . . . . .

e|--------------------------|
B|--------------------------|
G|--------------------------|
d|--------------------------|
A|-0000-000000-0-0-0-<3vb^>-|
D|-0000-000000-0-0-0--------|
P.M.... ...... . . .



LYRICS
The concept of fashion is the one to blame:
Painting the portrait of conviction-less existence.
Well, it must be difficult being so gorgeous.
Claiming to be the kings and queens but it's all of nothing.
This shall pass. Megalomania.
congratulations on mutiliation for a life.
i'm going to hope for you, i'm going to pray for you amongst the wreckless and the 
salvation lies within. my time is your's my friend.
We all find ourselves so horribly weak.
(Oh God,) here's an offering.


| /  slide up
| \  slide down.
| vb vibrato
| b^ bend up
| h  hammer-on
| p  pull-off
| ~  let ring
| +  harmonic
| <> pinch harmonic
| x  dead note
======================================================================

Tabbed by: BILLYutm

Song: Don't Dink And Drance

Gtr I (D A D G B E) - 'Distortion'
Gtr II (D A D G B E) - 'Distortion Pan'
Gtr III (D A D G B E) - 'Piano'
Gtr IV (D A D G B E) - 'Pick Slide'


  Q=210
 2/4
  Gtr I
  H
|------|
|------|
|------|
|------|
|------|
|------|


   16/4
    Q  E E E E E E E E E E E E E E Q  E E E E E E e E e E e E e E
||------------------------------------------------------------------||
||o----------------------------------------------------------------o||
||------------------------------------------------------------------||
||------------------------------------------------1---1---1---1-----||
||o--------5-5-----4-4-----3-3------------5-5-----1---1---1---1----o||
||--0--3-3-----3-3-----3-3-----3-3-0--3-3-----3-3-0---0---0---0-----||


 4/4
        |-3-|
  Q  Q  Q Q Q
|----------------|
|----------------|
|----------------|
|----------------|
|----------------|
|-6--5--3-1S3----|


 12/4
  PM----|     PM----|     PM|      PM----|
  E E E E E E E E E E E E E E Q    E E E E E E Q
|--------------------------------------------------|
|--------------------------------------------------|
|--------------------------------------------------|
|--------------------------------------------------|
|---------5p0------------------------------5h6-----|
|-0-0-0-0-----0-0-0-0-5h8-0-0-3b4--0-0-0-0---------|


 4/4
        |-3-|
  Q  Q  Q Q Q
|----------------|
|----------------|
|----------------|
|----------------|
|----------------|
|-6--5--3-1S3----|


   12/4
    PM----|     PM    PM    PM|      PM----|
    E E E E E E E E E E E E E E Q    E E E E E E Q
||--------------------------------------------------|
||o-------------------------------------------------|
||--------------------------------------------------|
||--------------------------------------------------|
||o---------5p0---8p0---0h3------------------5h6----|
||--0-0-0-0-----0-----0-----0-0-3b4--0-0-0-0--------|


 4/4
        |-3-|
  Q  Q  Q Q Q     3x
|-----------------||
|----------------o||
|-----------------||
|-----------------||
|----------------o||
|-6--5--3-1S3-----||


   8/4
    Gtr II
    PM----|     PM    PM    PM|
    E E E E E E E E E E E E E E Q     3x
||------------------------------------||
||o----------------------------------o||
||------------------------------------||
||------------------------------------||
||o---------5p0---8p0---0h3----------o||
||--0-0-0-0-----0-----0-----0-0-3b4---||


  Gtr I
  PM----|     PM|
  E E E E E E E E W
|--------------------------|
|--------------------------|
|--------------------------|
|--------------------------|
|---------5p0--------------|
|-0-0-0-0-----0-0-0pb1r====|


  Q=135
 9/4
                         PM------------|
  Q  Q  Q  E E E Q  Q  E S S S S S S S S
|----------------------------------------|
|----------------------------------------|
|----------------------------------------|
|-6--5--3--1-3-1-6--5--3-----------------|
|-6--5--3--1-3-1-6--5--3-----------------|
|-6--5--3--1-3-1-6--5--3-0-0-0-0-0-0-0-0-|


                         Q=120
                         PM--------|
                         |-3-| |-3-|
  Q  Q  Q  E E E Q  Q  E e e e e e e
|------------------------------------|
|------------------------------------|
|------------------------------------|
|-6--5--3--1-3-1-6--5--3-------------|
|-6--5--3--1-3-1-6--5--3-------------|
|-6--5--3--1-3-1-6--5--3-0-0-0-0-0-0-|


    Q=135
                             PM------------|
     Q  Q  Q  E E E  Q  Q  E S S S S S S S S
||--------------------------------------------||
||o------------------------------------------o||
||--------------------------------------------||
||--10--9--7--5-7-5-10--9--7------------------||
||o-10--9--7--5-7-5-10--9--7-----------------o||
||--10--9--7--5-7-5-10--9--7-0-0-0-0-0-0-0-0--||


  Q=150
 10/4
                                              >
   PM----------------------------------------|
   q    q    q    q   S S S S  q    q    Q   +H
|---------------------------------------------------|
|---------------------------------------------------|
|---------------------------------------------------|
|---------------------------------------------------|
|-(0)--(0)--(0)--(0)----------(0)--(0)--(0)--(0)----|
|--0----0----0----0---0-0-0-0--0----0----0---(0)----|


  Q=135
 8/4
  PM-------------------------------------|
  S S S e S e H    E S S S S E S S S e S e
|------------------------------------------|
|------------------------------------------|
|------------------------------------------|
|------------------------------------------|
|------------------------------------------|
|-0-0-0-0-0-0--------0-0-0-0---0-0-0-0-0-0-|


  PM-----------------------------------------|
  S S S e S e  H     +E  S S S S E S S S e S e
|----------------------------------------------|
|----------------------------------------------|
|----------------------------------------------|
|----------------------------------------------|
|-------------(0)----(0)-----------------------|
|-0-0-0-0-0-0--0-----(0)-0-0-0-0---0-0-0-0-0-0-|


   9/4
    PM----------------------------------------------------|
    S S S S S S S e S e S S S S S S S S S S S S  q    q    q
||--------------------------------------------------------------||
||o------------------------------------------------------------o||
||--------------------------------------------------------------||
||--------------------------------------------------------------||
||o---------------------------------------------(0)--(0)--(0)--o||
||--0-0-0-0-0-0-0-0-0-0-0-0-0-0-0-0-0-0-0-0-0-0--0----0----0----||


  Q=170
 5/4
   Q   Q   H     +Q     Q  Q  H    +Q
|---------------------|-----------------|
|---------------------|-----------------|
|-10--10--10----(10)--|-9--9--9----(9)--|
|---------------------|-----------------|
|--8---8---8-----(8)--|-7--7--7----(7)--|
|---------------------|-----------------|


  Q=140
 8/4
  PM       PM----|   PM----|   PM----|   PM--------|
  e E  S S S S S S E S S S S E S S S S E S S e S S e
|----------------------------------------------------|
|----------------------------------------------------|
|----------------------------------------------------|
|-----10p0-------------------------------------------|
|-0-8------------------------------------------------|
|-0--------0-0-0-0---0-0-0-0---0-0-0-0---0-0-0-0-0-0-|


  PM      PM----|   PM----|   PM----|   PM--------|
  e E S S S S S S E S S S S E S S S S E S S e S S e
|---------------------------------------------------|
|---------------------------------------------------|
|---------------------------------------------------|
|-----7p0-------------------------------------------|
|-0-8-----------------------------------------------|
|-0-------0-0-0-0---0-0-0-0---0-0-0-0---0-0-0-0-0-0-|


  Gtr III
   E  E  E  E  E  E  E E  W
|------------------------------|
|------------------------------|
|-14-14-12-10-12-10-10-9-10----|
|------------------------------|
|-12-12-10--8-10--8--8-7--8----|
|------------------------------|


  W               W
|-----------------------------------------------------|
|-----------------------------------------------------|
|-7---------------------------------------------------|
|-----------------------------------------------------|
|-5---------------------------------------------------|
|-----------------------------------------------------|
|
| Gtr I
| PM----|   PM----|   PM----|   PM----|   PM--------|
| S S S S E S S S S E S S S S E S S S S E S S e S S e
|-----------------------------------------------------|
|-----------------------------------------------------|
|-----------------------------------------------------|
|-----------------------------------------------------|
|-----------------------------------------------------|
|-0-0-0-0---0-0-0-0---0-0-0-0---0-0-0-0---0-0-0-0-0-0-|


  Gtr I
  PM----|   PM----|   PM----|   PM----|   PM--------|
  S S S S E S S S S E S S S S E S S S S E S S e S S e
|-----------------------------------------------------|
|-----------------------------------------------------|
|-----------------------------------------------------|
|-----------------------------------------------------|
|-----------------------------------------------------|
|-0-0-0-0---0-0-0-0---0-0-0-0---0-0-0-0---0-0-0-0-0-0-|


  Gtr III
   E  E  E  E  E  E  E E  W
|------------------------------|
|------------------------------|
|-14-14-12-10-12-10-10-9-10----|
|------------------------------|
|-12-12-10--8-10--8--8-7--8----|
|------------------------------|


    Q=170
   9/4
    Gtr I
     Q   Q   H     +Q    W
||----------------------------|
||o---------------------------|
||--10--10--10----(10)--10----|
||----------------------------|
||o--8---8---8-----(8)---8----|
||----------------------------|


  Q  Q  H    +Q   +W
|-------------------------||
|------------------------o||
|-9--9--9----(9)--(9)-----||
|-------------------------||
|-7--7--7----(7)--(7)----o||
|-------------------------||


    Q=140
   8/4
      PM----|       PM----|       PM----|       PM      PM
    E S S S S S S E S S S S S S E S S S S E +S  S E +S  S E
||----------------------------------------------------------|
||o---------------------------------------------------------|
||----------------------------------------------------------|
||----------------------------------------------------------|
||o-5---------5h6p5-----------------------------------------|
||----0-0-0-0-------0-0-0-0-3h4p3-0-0-0-0-6-(6)-0-5-(5)-0-3-|


    PM----|       PM----|       PM      PM
  E S S S S S S E S S S S E +S  S E +S  S E H
|-------------------------------------------------||
|------------------------------------------------o||
|-------------------------------------------------||
|-------------------------------------------3-----||
|-5---------5h6p5---------------------------3----o||
|---0-0-0-0-------0-0-0-0-6-(6)-0-5-(5)-0-3-3-----||


                         Gtr IV
            |--3--|   |--3---|
  H    +E   q  q  q  +Q   Q  Q  E  Q
|-------------------------------------|
|-------------------------------------|
|----------15-15-15-(15)-20s15-17s22--|
|----------14-14-14-(14)-20s15-17s22--|
|-0----(0)-13-13-13-(13)-20s15-17s22--|
|-0----(0)---------------20s15-17s22--|


  Q=170
  Gtr I
  Q   E  E  E  E  E  E  E  E  E  E  E  E  E  E
|----------------------------------------------|
|----------------------------------------------|
|----15-15-15-15-15-15-15-15-15-15-15-15-15-15-|
|----14-14-14-14-14-14-14-14-14-14-14-14-14-14-|
|-0--13-13-13-13-13-13-13-13-13-13-13-13-13-13-|
|-0--------------------------------------------|


  Q   E  E  E  E  E  E  E  E  E  E  E  E  E  E
|----------------------------------------------|
|----------------------------------------------|
|----14-14-14-14-14-14-14-14-14-14-14-14-14-14-|
|----13-13-13-13-13-13-13-13-13-13-13-13-13-13-|
|-0--12-12-12-12-12-12-12-12-12-12-12-12-12-12-|
|-0--------------------------------------------|


  Q   E  E  E  E  E  E  E  E  E  E  E  E  E  E
|----------------------------------------------|
|----------------------------------------------|
|----15-15-15-15-15-15-15-15-15-15-15-15-15-15-|
|----14-14-14-14-14-14-14-14-14-14-14-14-14-14-|
|-0--13-13-13-13-13-13-13-13-13-13-13-13-13-13-|
|-0--------------------------------------------|


  Q   E  E  E  E  E  E  E  E  E  E H
|---------------------------------------|
|---------------------------------------|
|----16-16-16-16-16-16-16-16-16-16------|
|----15-15-15-15-15-15-15-15-15-15------|
|-0--14-14-14-14-14-14-14-14-14-14------|
|-0-------------------------------------|


 9/4
  Q  H    q  q  Q  Q  H
|--------------------------|
|--------------------------|
|--------------------------|
|--------------------------|
|-0-------0--0--0----------|
|-0-------0--0--0----------|


  Q  H    q  q  Q  Q  H
|---------------------0----|
|---------------------4----|
|--------------------------|
|--------------------------|
|-0-------0--0--0----------|
|-0-------0--0--0----------|


  Q  H    q  q  Q  Q  H
|--------------------------|
|--------------------------|
|--------------------------|
|--------------------------|
|-0-------0--0--0----------|
|-0-------0--0--0----------|


  Q  H    q  q  W
|--------------------|
|--------------------|
|--------------------|
|--------------------|
|-0-------0--0--0----|
|-0-------0--0--0----|


  Q=140
 6/4
     PM|    PM|    PM|    PM|    PM|    PM|
   E S S  E S S  E S S  E S S  E S S  E S S
|-------------------------------------------|
|-------------------------------------------|
|-15-----15-----15-----15-----15-----15-----|
|-14-----14-----14-----14-----14-----14-----|
|-13-----13-----13-----13-----13-----13-----|
|----0-0----0-0----0-0----0-0----0-0----0-0-|


 7/4
     PM|    PM|    PM|
   E S S  E S S  E S S  H     +Q   Q
|--------------------------------------|
|--------------------------------------|
|-14-----14-----14-----14----(14)------|
|-13-----13-----13-----13----(13)--4\--|
|-12-----12-----12-----12----(12)--4\--|
|----0-0----0-0----0-0-------------4\--|


   8/4
    S S e S S e Q  S S e S S e S S e E E E E
||-------------------------------------------|
||o------------------------------------------|
||-------------------------------------------|
||-------------------------------------------|
||o-0-0-0-0-0-0----0-0-0-0-0-0-0-0-0---------|
||--0-0-0-0-0-0----0-0-0-0-0-0-0-0-0-6s2s6s2-|


  S S e S S e Q  S S e S S e S S e  S   S   S   S   Q
|----------------------------------<4>-------------------||
|--------------------------------------<4>--------------o||
|------------------------------------------<4>-----------||
|----------------------------------------------<4>-------||
|-0-0-0-0-0-0----0-0-0-0-0-0-0-0-0-----------------<4>--o||
|-0-0-0-0-0-0----0-0-0-0-0-0-0-0-0-----------------------||


  W
|------*|
|------*|
|------*|
|------*|
|------*|
|------*|




--------------------------------------------------------------------------------


Duration Legend
---------------
W - whole; H - half; Q - quarter; E - 8th; S - 16th; T - 32nd; X - 64th; a - acciaccatura
+ - note tied to previous; . - note dotted; .. - note double dotted
Uncapitalized letters represent notes that are staccato (1/2 duration)
Irregular groupings are notated above the duration line
Duration letters will always appear directly above the note/fret number it represents the
duration for.  Duration letters with no fret number below them represent rests.  Multi-
bar rests are notated in the form Wxn, where n is the number of bars to rest for.  Low
melody durations appear below the staff

Tablature Legend
----------------
 h   - hammer-on
 p   - pull-off
 b   - bend
 pb  - pre-bend
 r   - bend release (if no number after the r, then release immediately)
 /\  - slide into or out of (from/to "nowhere")
 s   - legato slide
 S   - shift slide
 - natural harmonic
[n]  - artificial harmonic
n(n) - tapped harmonic
 ~   - vibrato
 tr  - trill
 T   - tap
 TP  - trem. picking
 PM  - palm muting
\n/  - tremolo bar dip; n = amount to dip
 \n  - tremolo bar down
 n/  - tremolo bar up
/n\  - tremolo bar inverted dip
 =   - hold bend; also acts as connecting device for hammers/pulls
 <> - volume swell (louder/softer)
 x   - on rhythm slash represents muted slash
 o   - on rhythm slash represents single note slash

Misc Legend
-----------
 |  - bar
||  - double bar
||o - repeat start
o|| - repeat end
*|  - double bar (ending)
 :  - bar (freetime)
 $  - Segno
 &  - Coda
Tempo markers -  = BPM(8/16=s8/s16), where s8 = swing 8ths, s16 = swing 16ths
==================================================================

Tabbed by: BILLYutm

Song:You Can't Spell Crap Without The "C" 

| h  hammer-on
| p  pull-off
| .  Mute note
| x2 repeat twice
| \/ slide

Tuning: DROP D!

Intro: repeat twice
(fast picking)
e|-------------------------------------------------------------------------|
B|-------------------------------------------------------------------------|
G--------------------------------------------------------------------------|
D|-----------------------0-0-0-0--x2---------------------------------------|
A|---5---4-3-------5-----0-0-0-0-------------------------------------------|
D|0-3--3--3--3-0-3---3---0-0-0-0------6-5-3-/1\3---------------------------|
                         . . . .


Verse 1: repeat twice
e|-------------------------------------------------------------------------|
B|-------------------------------------------------------------------------|
G|------------------------------------------------------------------x2-----|
D|-------------------------------------------------------------------------|
A|-----------3--------8----------------------5h6---------------------------|
D|--000-000-----h5--0--0--5h8--0-3--333--333--------6-5-3-/1\3-------------|
    ... ...         .  .       .    ...  ...

(Figure out the rhythm for the pre-chorus yourself!)


e|-------------------------------------------------------------------------|
B|-------------------------------------------------------------------------|
G|-------------------------------------------------------------------------|
D|6--5-3-1-3-1-6-5-3--0000-0000--------------------------------------------|
A|6--5-3-1-3-1-6-5-3--0000-0000--------------------------------------------|
D|6--5-3-1-3-1-6-5-3--0000-0000--------------------------------------------|
                      .... ....
Then the awsome breakdown! (figure out the rhythm!)

e|-------------------------------------------------------------------------|
B|-------------------------------------------------------------------------|
G|-------------------------------------------------------------------------|
D|000-000-10-10-10--9--9--9-00----10-0000---0000---------7--00-------------|
A|000-000-x--x---x--x--x--x-00--8----0000---0000-blah--8----00-------------|
D|000-111-8--8---8--7--7--7-00-------0000---0000------------00-------------|
  ... ...                   ..       ....   ....            ..
"wond by wond"
e|-------------------------------------------------------------------------|
B|-------------------------------------------------------------------------|
G|-------------------------------------------------------------------------|
D|101010--9-9-9--1010-10--12--12-12--141414--------------------------------|
A|x-x-x---x-x-x--x-x--x----x---x--x---x-x-x--------------------------------|
D|8-8-8---7-7-7--8-8--8---10--10-10--121212--------------------------------|


Then the awsome riff. (repeat it a lot)
e|-------------------------------------------------------------------------|
B|-------------------------------------------------------------------------|
G|-------------------------------------------------------------------------|
D|-------------------------------------------------------------------------|
A|-------------------------------------------------------------------------|
D|12-0000-12h13h12--0000--3h4h3--0000--5-00-4-00-3--12-0000--12h13h12--0000|
     ....           ....         ....    ..   ..       ....            ....
e|-------------------------------------------------------------------------|
B|-------------------------------------------------------------------------|
G|-------------------------------------------------------------------------|
D|-------------3--0----15-15--15-0---15-0--14-0--14--0---16----------------|
A|-------------3--0----14-14--14-0---14-0--13-0--14--0---15----------------|
D|5-00-4-0000--3--0----13-13--13-0---13-0--12-0--13--0---14----------------|
    ..   ....


===================================================================

       Tuning - Drop D ( D A D G B e )
    Tabbed By - Joe B.
    Song: This Song Is Called

                         April 4,2008 1:15 PM
                        
                        
                      UPDATED    June 13th 2008
                              - Fixed Guitar I's first riff
                              - Fixed Interlude 
                              - KINDA fixed ending chords(Still not perfect)

                              LEGEND
                        ====+==========+====
                         PM - Palm Mute
                         h  - Hammer On
                         p  - Pull Off
                         ~  - Let Ring
                         / \- Slide (Up,Down)
                         tr - Tremelo Picking

 Both Guitars
|---------------------|
|---------------------|
|--8~~~---5-5-5~~~-0--|
|--8~~~---5-5-5~~~-0--|
|--8~~~---5-5-5~~~-0--|
PM        . .      .
---------------------------------------------------------------------------

Guitar I
|-------------------------------------------------------------------|
|-------------------------------------------------------------------|
|-------------------------------------------------------------------|
|------------------------10h12p10----------------------7h8p7--------|
|-----8--10----12-10-------------12-----8--7--8--7----------8-------|\
|-8-8--8---8-8---8--8-8--------------0-0--0-00--0--0-0--------------| \
PM. .  .   . .   .  . .               . .  . ..  .  .  .               \
                                                                        \ 
                                                                         \x3
                                                                          /
|-----------------------------------------------------------|            /
|-----------------------------------------------------------|           /
|-----------------------------------------------------------|          /
|-------------------7h8p7---------------------7h8p7---------|         /
|----5--7--8--7----------8------5--7--8--7----------8-------|        /
|-0-0--0-00--0--0-0---------0-0--0--00--0--0-0--------------|       /
PM. .  . ..  .  .  .        . .  .  ..  .  . .



Guitar II  (Strumming Pattern not shown)
|----------------------------------------------------------------|
|----------------------------------------------------------------|
|----------------------------------------------------------------|
|-8------------------5------------------------------0------------|
|-8------------------5------------------------------0------------|
|-8------------------5------------------------------0------------|

---------------------------------------------------------------------------
Guitar I
|-----------------------------------|
|-----------------------------------|
|-----------------------------------|
|-0-0-0-0-0-0-0-0-0-0-0-0-0-0-0-0-0-|
|-0-0-0-0-0-0-0-0-0-0-0-0-0-0-0-0-0-|
|-0-0-0-0-0-0-0-0-0-0-0-0-0-0-0-0-0-|
PM. . . . . . . . . . . . . . . . .

Guitar II
|---------------------|
|---------------------|
|---------------------|
|---0---0---0---0---0-|
|---0---0---0---0---0-|
|---0---0---0---0---0-|


---------------------------------------------------------------------------

Guitar I [ ]=Every other time
|----------|---------------------|-----------------------|
|----------|---------------------|-------Last Ending-----|
|------7/9-|---------------------|-----------------------|
|------x-x-|-8-7-3-3-3-3-3-[5-5]-|-888888810101010101010-|
|--000-5/7-|-8-7-3-3-3-3-3-[5-5]-|-888888810101010101010-|
|--000-----|-8-7-3-3-3-3-3-[5-5]-|-888888810101010101010-|
PM ...

Guitar II
|----------|------------------------|-----------------------|
|----------|------------------------|-------Last Ending-----|
|------5/7-|-----[10-10-10-10-10-10]|-----------------------|
|------x-x-|-8-7-[x--x--x--x--x--x]-|-888888810101010101010-|
|--000-3/5-|-8-7-[8--8--8--8--8--8]-|-888888810101010101010-|
|--000-----|-8-7--------------------|-888888810101010101010-|
PM ...

---------------------------------------------------------------------------

Guitar I
|---------|--------------------|
|---X2----|--------------------|
|---------|-10~----------9~~~7-|
|-0-0-0-0-|-x~~-0-0-0-0--x~~~x-|
|-0-0-0-0-|-8~~-0-0-0-0--7~~~5-|
|-0-0-0-0-|-----0-0-0-0--------|
PM. . . .       . . . .

Guitar II
|---------|--------------------|
|---X2----|--------------------|
|---------|-14~----------12~~10|
|-0-0-0-0-|-x~~-0-0-0-0--x~~~x-|
|-0-0-0-0-|-12~-0-0-0-0--10~~8-|
|-0-0-0-0-|-----0-0-0-0--------|
PM. . . .       . . . .
---------------------------------------------------------------------------
 (Thanks to bulletrocks522 for helping me figure this part out!) 

Guitar I w/ Delay
|-----------------------------------------------------|
|-6p3-----10~~~~~8/10\8---6p3----------5-/-6-\-5-/-6--|
|-----5/7--------------------5/7--7~~~~---------------|
|-----------------------------------------------------|
|-----------------------------------------------------|
|-----------------------------------------------------|
Guitar II w/ Delay
|-----------------------------------------------|
|---------10~~~~~~------------------------------|
|-----------------------------------------------|
|---------------------------5-/-8--8--5-/-7~~~~-|
|-----------------------------------------------|
|-----------------------------------------------|

---------------------------------------------------------------------------

Both Guitars
|---------------------------------------------------------------|
|---------------------------------------------------------------|
|---------------------------------------------------------------|
|-0-0-0-0-0-0-0-0-0-0-0-0-0-0-0-0-0-0-0-0-0-0-0-0-0-0-0-0-0-0---|
|-0-0-0-0-0-0-0-0-0-0-0-0-0-0-0-0-0-0-0-0-0-0-0-0-0-0-0-0-0-0---|
|-0-0-0-0-0-0-0-0-0-0-0-0-0-0-0-0-0-0-0-0-0-0-0-0-0-0-0-0-0-0---|

Guitar II
|----------------------------------------|
|----------------------------------------|
|----------------------------------------|
|--0~~~-----0~~~--------0~~~-------0~~~--|
|--0~~~-0-0-0~~~--0-0-0-0~~~--0000-0~~~--|
|--0~~~-0-0-0~~~--0-0-0-0~~~--0000-0~~~--|
PM      . .       . . .       ....


Guitar I
|-------------------------------|
|-------------------------------|
|---7tr----9tr----10tr----12tr--|
|-------------------------------|
|-------------------------------|
|-------------------------------|

Guitar II
|----------------------------------------|
|----------------------------------------|
|----------------------------------------|
|--0---0---0---0-------------------------|
|--0---0---0---0-------------------------|
|--0---0---0---0-----3--/--12--12--\--3--|

Guitar I
|-------------------------------|
|-------------------------------|
|---7tr----9tr----10tr----12tr--|
|-------------------------------|
|-------------------------------|
|-------------------------------|

Guitar II
|-------------------------------|
|-------------------------------|
|-------------------------------|
|--00-00-0000000-00-00-0000000--|
|--00-00-0000000-00-00-0000000--|
|--00-00-0000000-00-00-0000000--|
PM .. .. ....... .. .. .......

Guitar I
|-------------------------------|
|-------------------------------|
|---7tr----9tr----10tr----12tr--|
|-------------------------------|
|-------------------------------|
|-------------------------------|

---------------------------------------------------------------------------

Both Guitars
|--------------------|--------------------------------|
|--------------------|--------------------------------|
|--------------------|--------------------------------|
|-0-0--0-0-0-0-0-0-0-|--0-0--0-0-0-0-0-0-0---8-7--5-3-|
|-0-0--0-0-0-0-0-0-0-|--0-0--0-0-0-0-0-0-0---8-7--5-3-|
|-0-0--0-0-0-0-0-0-0-|--0-0--0-0-0-0-0-0-0---8-7--5-3-|
PM. .  . . . . . . .    . .  . . . . . . .


Both
|--------------|--------------------------------|
|--------------|--------------------------------|
|----14-----15-|---14-14-14-----------14-----15-|
|--0--x-0-0--x-|-0--x--x--x-0-0-0-0-0--x-0-0--x-|
|--0-12-0-0-13-|-0-12-12-12-0-0-0-0-0-12-0-0-13-|
|--0----0-0----|-0----------0-0-0-0-0----0-0----|
PM .    . .      .          . . . . .

Both
|--------------|
|--------------|
|--------------|
|--------------|
|--4--3--2--1--|
|--5--4--3--2--|
===============================================================

Song is named after the big green dinosaur off of the show RUGRATS ! lol

Tabbed By: Jeremy Jones
Email: jonesy_the_man18@hotmail.com
Song: Reptar King Of The Ozone

Tuning - DROP D (DADGBE)

t = tremelo picking
P.M. or . = palm mute
* = harmonic
~ = let note ring
h = hammer on
p = pull off
/ = slide up
\ = slide down

Intro
Guitar 1
0:00-0:06
e|-------------------------------------------------------------------|
B|-------------------------------------------------------------------|
G|-------------------------------------------------------------------|
D|-0~----------------------------------------------------------------|
A|-0~------------------------------------0------8-7------0---0-0-----|
D|-0~------------------------------------0------8-7------0---0-0-3b*-|
P.M                                                            .

Guitar 2
0:00-0:06
e|--------------------------------------------------------------------|
B|--------------------------------------------------------------------|
G|--------------------------------------------------------------------|
D|--------------------------------------------------------------------|
A|-0-0000-8-7-0000-8-0-7-0--------7h8h10-0-0000-8-7-0000-8-0-7-00-8b*-|
D|-0-0000-8-7-0000-8-0-7-0-7h8h10--------0-0000-8-7-0000-8-0-7-00-----|
P.M  ....     ....   .   .                 ....     ....   .   ..

Verse Thing ?
0:07 - 0:19                                X2
e|-----------------------------------------------|
B|-----------------------------------------------|
G|-----------------------------------------------|
D|-----------------------------------------------|
A|-0-0000-8-7-00000000-0000-0000-8~-7~-0-4-3-2-1-|
D|-0-0000-8-7-00000000-0000-0000-8~-7~-0-4-3-2-1-|
P.M  ....     ........ .... ....       . . . . .

0:19-0:31
e|----------------------------------------------------------|
B|----------------------------------------------------------|
G|----------------------------------------------------------|
D|------------------------------------------------------10--|
A|-8----8-7----10-8-7h8p7-10-8--------8-7----10-8-7h8p7---8-|
D|--0000---0000--0-0------------8-0000---0000--0-0----------|
P.M ....   ....  . .              ....   ....  . .
e|--------------------------------------------------------|
B|--------------------------------------------------------|
G|--------------------------------------------------------|
D|-----------------------------------------------------10-|
A|-------8-7----10-8-7h8p7-10-8-------8-7----10-8-7h8p7---|
D|-0-0000---0000--0-0-----------8-0000---0000--0-0--------|
P.M  ....   ....  . .             ....   ....  . .

Breakdown
0:32-0:38
e|------------------------------|
B|------------------------------|
G|------------------------------|
D|-0~---------------------------|
A|-0~--------0000-00-00-0000-00-|
D|-0~--------0000-00-00-0000-00-|
P.M          .... .. .. .... ..

0:38-0:49                      x3  Second ending
e|-------------------|-----------|--------------|
B|-------------------|-----------|--------------|
G|-------------------|-----------|--------------|
D|-------------------|-----------|--------------|
A|-0000-00-00-000000-|-0-4-3-2-1-|-0-4-3-2-3vb*-|
D|-0000-00-00-000000-|-0-4-3-2-1-|-0-4-3-2------|
P.M.... .. .. ......   . . . . .   . . . .

Chorus
0:51-1:13, 2:05-2:28              2nd Ending
e|----------------------------|   |------------------|
B|----------------------------|   |------------------|
G|----------------------------|   |------------------|
D|-0------8------7------8-----|   |------------------|
A|-0-X16--8-X16--7-X16--8-X16-|   |--00-00-00-00-00--|
D|-0------8------7------8-----|   |--00-00-00-00-00--|
                                P.M. .. .. .. .. ..

Guitar 1
1:14-1:24                    2nd & 4th ending
e|--------------------------|----------------|
B|--------------------------|----------------|
G|--------------------------|----------------|
D|--------------------------|----------------|
A|-000000-00-00-00-00-00-00-|-8~-----10~-----|
D|-000000-00-00-00-00-00-00-|-8~-----10~-----|
P.M...... .. .. .. .. .. ..

Guitar 2
1:14-1:24                    1st & 3rd ending  2nd & 4th ending
e|-------------------------|-----------------|-----------------|
B|-------------------------|-----------------|-----------------|
G|-------------------------|-----------------|-----------------|
D|-0tp-3tp-0tp-2tp-0tp-3tp-|-7tp-5tp-3tp-2tp-|-8~-----10~------|
A|-------------------------|-----------------|-8~-----10~------|
D|-------------------------|-----------------|-8~-----10~------|

Guitar 1
1:25-1:36
e|-----------------------------|
B|-----------------------------|
G|-----------------------------|
D|-----------------------------|
A|-0-0000-----0000-00-00-00-00-|
D|-0-0000-8-7-0000-00-00-00-00-|
P.M  ....     .... .. .. .. ..

Guitar 2
1:25-1:36
e|-----------------------------|
B|-----------------------------|
G|-----------------------------|
D|-----------------------------|
A|-0-0000-8-7-0000-00-00-00-00-|
D|-0-0000-----0000-00-00-00-00-|
P.M  ....     .... .. .. .. ..


Build Up
1:36-1:42
e|--------|
B|-9~-----|
G|-6~-----| Scrape First Note Lightly
D|-0~--00-|
A|-0~--00-|
D|-0~--00-|

Sweet Riff (Pretty much right if you dont have guitar pro but i tried to tab it the best 
could without it, so bare with me)

1:42-2:05                                                                  x2
e|-----------8h10----------------------------------------------------------|
B|---------------8h10------------------------------------------------------|
G|-------------------------1010101010------12h14-10h12-9\--------1010101010|
D|0000---10----------888-00-x-x-x-x-x--0000----------------888 00-x-x-x-x-x|
A|0000-/8--8---------888-00-8-8-8-8-8--0000----------------888 00-8-8-8-8-8|
D|0000---------------888-00------------0000----------------888-00----------|

Repeat Chorus
                                           2nd Ending
e|----------------------------|   |------------------|
B|----------------------------|   |------------------|
G|----------------------------|   |------------------|
D|-0------8------7------8-----|   |------------------|
A|-0-X16--8-X16--7-X16--8-X16-|   |--00-00-00-00-00--|
D|-0------8------7------8-----|   |--00-00-00-00-00--|
                                P.M. .. .. .. .. ..

After Chorus
2:29-2:31
e|----|
B|-6~-|
G|-9~-| Strum First Note Lightly To Accent
D|-0~-|
A|-0~-|
D|-0~-|

2:31-2:49              x5
e|-----------------------|
B|-----------------------|
G|-----------------------|
D|-----------------------|
A|-00-0000-0000-00000000-|
D|-00-0000-0000-00000000-|
P.M.. .... .... ........

After Breakdown
2:49-2:56
e|-----------------------|
B|-----------------------|
G|-----------------------|
D|-----------------------|
A|-8----7-8--8-10----8-7-|
D|--0000---00----0000----|

2:56-3:03
e|-----------------------|
B|-----------------------|
G|-----------------------|
D|-----------------------|
A|-00-0000-0000-00000000-|
D|-00-0000-0000-00000000-|
P.M.. .... .... ........


Ending
3:03-3:09
e|-----------|
B|-6~--------|
G|-9~--------|
D|-0~------0-|
A|-0~------0-|
D|-0~------0-|
===================================================================

Tabbed by: steve        myspace.com/chiefwiggums83
Email: therabbit99999@yahoo.com
Song: The Scorpion Deathlock

Tuning: Drop Deezy fo sheezy (D A D G B E) ok.


Intro
0:00
Strumming is completely incorrect, but use these octaves:
e|---------------------------|
B|---------------------------|
G|-15-15-14-12-14-14-14-10-9-|
D|-x--x--x--x--x--x--x--x--x-|
A|-13-13-12-10/12-12-12-8--7-|
D|---------------------------|


0:09
e|--------------------------------------------------------|
B|--------------------------------------------------------|
G|--------------------------------------------------------|
D|--------------------------------------------------------|
A|-----8p0-7p0--10-8--7h8p7p0-----8p0-7p0--10-8---7h8p7p0-|
D|-0-0---------0--0-0---------0-0---------0--0--0---------| x2
P.M. .         . .  .         . .         .  .  .


0:19
e|--------------------------------------------------|
B|--------------------------------------------------|
G|------------------------------------------777-999-|
D|------------------------------------------xxx-xxx-|
A|-----8p7---5p0-0-0--0-0-0-0--0-0--0-0-0-0-555-777-|
D|-0-0-----0-----0-0--0-0-0-0--0-0--0-0-0-0---------| x2
P.M. .     .     . .  . . . .  . .  . . . .

Chorus
0:28
Guitar 1
e|---------------------------------------------------------------------|
B|---------------------------------------------------------------------|
G|-------------------------------------12///---------------------------|
D|-12121212121212-10101010101010-88888-x-----00000000-1010101010101010-|
A|-12121212121212-10101010101010-88888-10///-00000000-1010101010101010-|
D|-12121212121212-10101010101010-88888-------00000000-1010101010101010-|

Guitar 2
e|-----------------------------------------------------------------------|
B|-----------------------------------------------------------------------|
G|-171717171717171717171717171717-------12///----------------------------|
D|-x-x-x-x-x-x-x-x-x-x-x-x-x-x-x--88888-x------00000000-1010101010101010-|
A|-151515151515151515151515151515-88888-10///--00000000-1010101010101010-|
D|--------------------------------88888--------00000000-1010101010101010-|


0:40
e|------------------------|
B|------------------------|
G|------12///------10///--|
D|-8888-x-----8888-x------|
A|-8888-10///-8888-8////--|
D|-8888-------8888--------|


0:42,1:02
e|-----------------------------------|
B|-----------------------------------|
G|-----------------------------------|
D|-----------------------------------|
A|-0-0-0---0-0-0-0--0-0-0-0--0-0-0-0-|       
D|-0-0-0---0-0-0-0--0-0-0-0--0-0-0-0-| x4 (3rd time guitar 2 huge pickslide)
P.M. . .   . . . .  . . . .  . . . .


0:57
e|-----------------------------------------|
B|-----------------------------------------|
G|-----------------------------------------|
D|-----------------------------------------|
A|-0-000-000-000-000-000-000-000-000-000-0-|
D|-0-000-000-000-000-000-000-000-000-000-0-|
P.M. ... ... ... ... ... ... ... ... ... .


1:12
e|-----------------------------------|
B|-------12--------------------------|
G|-------15--------------------------|
D|-----------------------------------|
A|-0-0-0---0-0-0-0--0-0-0-0--0-0-0-0-|
D|-0-0-0---0-0-0-0--0-0-0-0--0-0-0-0-|
P.M. . .   . . . .  . . . .  . . . .


1:23
e|----------------------------|
B|----------------------------|
G|-77777777-88888888-77777777-|
D|-xxxxxxxx-xxxxxxxx-xxxxxxxx-|
A|-55555555-66666666-55555555-|
D|----------------------------|


1:29
e|--------------------------------------------|
B|--------------------------------------------|
G|--------------------------77777777-88888888-|
D|--------------------------xxxxxxxx-xxxxxxxx-|
A|-8p7----------------------55555555-66666666-|
D|-----00-8p7-00-7p5-00-3h5-------------------|
P.M    ..     ..     ..


(Slide down into)

1:43                                 First  Second (Endings)
e|----------------------------------|------|------|
B|----------------------------------|------|------|
G|----------------------------------|------|------|
D|----------------------------------|------|------|
A|-1-2-1-1-1--2-1-0----1-2-1-1-1--2-|---1*-|-1*---|
D|-0-3-2-0-2--3-2-1----0-3-2-0-2--3-|-2*---|---2*-|
P.M. . . . .  . . .    . . . . .  . 


Guitar 1
1:56
TP = tremolo pick (if you couldnt tell)
e|----------------------------------------------------------------|
B|----------------------------------------------------------------|
G|----------------------------------------------------------------|
D|--------------------------------------------3tp-5tp-3tp---------|
A|-3tp-5tp-6tp-5tp-3tp-5tp-6tp-3tp-5tp-6tp-5tp------------6tp-5tp-|
D|----------------------------------------------------------------|

Guitar 2
e|---------------------|
B|---------------------|
G|---------------------|
D|---------------------|
A|-0000-0-0-0---0000-0-|
D|-0000-0-0-0---0000-0-|
P.M.... . . .   .... .


2:09
e|-------------------|
B|-10-1010-1010-1010-|
G|-10-1010-1010-1010-|
D|-x--x-x--x-x--x-x--|
A|-8--8-8--8-8--8-8--|
D|-------------------|



Chorus
2:12
Guitar 1
e|-----------------------------------------------------------------|
B|-----------------------------------------------------------------|
G|-----------------------------------------------------------------|
D|-12121212121212-10101010101010-8888888-00000000-1010101010101010-|
A|-12121212121212-10101010101010-8888888-00000000-1010101010101010-|
D|-12121212121212-10101010101010-8888888-00000000-1010101010101010-|

Guitar 2
e|---------------------------------------------------------------------|
B|---------------------------------------------------------------------|
G|-171717171717171717171717171717-141414141414-------------------------|
D|-x-x-x-x-x-x-x-x-x-x-x-x-x-x-x--x-x-x-x-x-x--00000000-10101010101010-|
A|-151515151515151515151515151515-121212121212-00000000-10101010101010-|
D|---------------------------------------------00000000-10101010101010-|


2:27
e|---------------|
B|---------------|
G|---------------|
D|-8-8--88-8-8-8-|
A|-8-8--88-8-8-8-|
D|-8-8--88-8-8-8-|


*Drum fill you cant play without a smile on your face*


2:30
e|---------------|
B|---------------|
G|---------------|
D|-0-0--00-0-0-0-|
A|-0-0--00-0-0-0-|
D|-0-0--00-0-0-0-|


2:35
e|---------------------------|
B|---------------------------|
G|------10/9-----------------|
D|------7-/5--------------5~-| Let the last two notes
A|------8-/7-----------7h8~--| run into each other
D|-0-0-0-----0000-0-0-0------| x4
P.M. . .     .... . . .


2:47
e|----------------|
B|----------------|
G|----------------|
D|----------------|
A|-0-0--0-0-0-0-0-|
D|-0-0--0-0-0-0-0-|
P.M. .  . . . . . 


2:58
e|----|
B|----|
G|----|
D|-0~-|
A|-0~-|
D|-0~-|


Make the picking slow and sludgy to get that mean nig to the chords
This is so heavy it made me laugh. 
3:06
e|-----------------------------Crazy---------------------------------------|
B|-----------------------------wammy---------------------------------------|
G|-----------------------------sh##----------------------------------------|
D|-------------------------------------------------------------------------|
A|-1--2-1-1-1--2-1-0---1--2-1-1-------1--2-1-1-1--2-1-0--1--2-1-1--1--0--0-|
D|-0--3-2-0-2--3-2-1---0--3-2-0-------0--3-2-0-2--3-2-1--0--3-2-1--2--1--0-|
P.M.  . . . .  . . .   .  . . .       .  . . . .  . . .  .  . . .  .  .  

Then viciously detune
or
use your wammy bar if you got one
luckys.
================================================================

Tabbed by:rockonmetal83
Email:therabbit99999@yahoo.com
Song: Nickels Is Money Too

Tuning:Drop Dizzle (D A D G B E)


e|---------------------------------|
B|---------------------------------|
G|---------------------------------|
D|---------------------------------|
A|---------------------------------|
D|-000-000-000-000-000-000-000-000-|
P.M... ... ... ... ... ... ... ...


e|----------------------------------------------------|
B|----------------------------------------------------|
G|----------------------------------------------------|
D|----------------------------------------------------|
A|-000-000--00-000-000-0~--000-000-000-0~-------------|
D|-000-000--00-000-000-0~--000-000-000-0~-------------|
P.M... ...  .. ... ... .   ... ... ... .


e|-------------------------------------------------------|
B|-------------------------------------------------------|
G|-15-1414-12--14-1212-10-7777-------------7777-10101010-|
D|-x--x-x--x---x--x-x--x--xxxx-------------xxxx-x-x-x-x--|
A|-13-1212-10--12-1010-8--5555-000-000-000-5555-8-8-8-8--|
D|-----------------------------000-000-000---------------|
P.M                            ... ... ...


e|----------------|-----|
B|----------------|-----|
G|----------------|-----|
D|----------------|-<5>-|
A|-0-00--00-00-00-|-<5>-|
D|-0-00--00-00-00-|-----|
P.M. ..  .. .. ..


e|--------------------------|-----------------|
B|--------------------------|-----------------|
G|--------------------------|-----------------|
D|--------------------------|-----------------|
A|-0-00--00-00-00--0-0000-0-|-8p0-7p0-5p0-7p0-|
D|-0-00--00-00-00--0-0000-0-|-----------------|
P.M. ..  .. .. ..  . .... .



e|------------------------------------------|
B|------------------------------------------|
G|------------------------------------------|
D|------------------------------------------|
A|---5h8------------5h8----8p0-7p0-5p0-4p0--|
D|-00---00000-000000---0000-----------------|
P.M.. ..... ...... ....

e|------------------------------------------|
B|------------------------------------------|
G|------------------------------------------|
D|------------------------------------------|
A|---5h8------------5h8----8p0-7p0-5p0-4p0--|
D|-55---55555-555555---5555-----------------|
P.M.. ..... ...... ....

e|------------------------------------------|
B|------------------------------------------|
G|------------------------------------------|
D|------------------------------------------|
A|---5h8------------5h8----8p0-7p0-5p0-4p0--|
D|-88---88888-888888---8888-----------------|
P.M.. ..... ...... ....

e|------------------------------------------|
B|------------------------------------------|
G|------------------------------------------|
D|------------------------------------------|
A|---5h8------------5h8----8p0-7p0-5p0-4p0--|
D|-77---77777-777777---7777-----------------|
P.M.. ..... ...... ....

This section is repeated twice i think,
with the first two parts
not palm muted the second time through.


e|----|
B|----|
G|----|
D|-0~-|
A|-0~-|
D|-0~-|


e|--------|
B|-5---5~-|
G|-8---8~-|
D|--------|
A|---0----|
D|---0----|
P.M  .


e|-----------------------------------------|
B|-----------------------------------------|
G|---14--------14--------------------10/12-|
D|---x---------x---------------------x--x--|
A|-0-12-0----0-12-0--000-000-000-000-8-/10-|
D|-0----0----0----0--000-000-000-000-------|
P.M                  ... ... ... ...


e|-----------|
B|-----------|
G|-141414----|
D|-x-x-x-----|
A|-121212--0-|
D|---------0-|
P.M        .

Guitar 1
e|---------------------------------|
B|---------------------------------|
G|---------------------------------| 
D|-12121212-10101010-8888-12121212-| 
A|-12121212-10101010-8888-12121212-|
D|-12121212-10101010-8888-12121212-|


Guitar 2
e|-----------------------------------------------------------------|
B|-----------------------------------------------------------------|
G|-1414141414-10101010-12121212-1010101010101010-14141414-12121212-|
D|-x-x-x-x-x--x-x-x-x--x-x-x-x--x-x-x-x-x-x-x-x--x-x-x-x--x-x-x-x--| meh.
A|-1212121212-8-8-8-8--10101010-8-8-8-8-8-8-8-8--12121212-10101010-|
D|-----------------------------------------------------------------|


at 2:38... Im not sure if this is keyboard or not but
e|-------------------------------------|
B|-------------------------------------|
G|-14-12-10-12-10-12/14-12-14-15-14-12-|
D|-x--x--x--x--x--x--x--x--x--x--x--x--|
A|-12-10-8--10-8--10/12-10-12-13-12-10-|
D|-------------------------------------|


e|--------------|---|
B|--------------|---|
G|--------------|---|
D|-0-0-0-0------|-1-|
A|-0-0-0-0-//\\-|-1-|
D|-0-0-0-0-//\\-|-1-|

This part consists only of opens, open palm mutes, and that D# chord.
I think you can figure it out.



Guitar 1
e|-------------------------------------------------------|
B|-------------------------------------------------------|
G|--------------------------------------/10-12-10-9-10-9-|
D|-------------------------------------------------------|
A|-0-00-0-00-0-00-0-00-0-0-0-0-0-00-0-00-----------------|
D|-0-00-0-00-0-00-0-00-0-0-0-0-0-00-0-00-----------------|
P.M  ..   ..   ..   ..   .   .   ..   ..

Guitar 2
e|---------------------------------------------------------|
B|---------------------------------------------------------|
G|---------------------------------------------------------|
D|--------------------------------------/12-14-12-10-12-10-|
A|-0-00-0-00-0-00-0-00-0-0-0-0-0-00-0-00-------------------|
D|-0-00-0-00-0-00-0-00-0-0-0-0-0-00-0-00-------------------|
P.M  ..   ..   ..   ..   .   .   ..   ..

Guitar 1
e|-----------------------------------|
B|-----------------------------------|
G|------------------/10-12-10-9-10-9-|
D|-----------------------------------|
A|-0-0---00-0---0-0------------------|
D|-0-0---00-0---0-0------------------|
P.M. .   .. .   . .

Guitar 2
e|-------------------------------------|
B|-------------------------------------|
G|-------------------------------------|
D|------------------/12-14-12-10-12-10-|
A|-0-0---00-0---0-0--------------------|
D|-0-0---00-0---0-0--------------------|
P.M. .   .. .   . .
==============================================================

and there you have it PLEASE tell me if this was a good idea lol, and any of the 
tabbers who have a problem with seeing their tab on here PLEASE let me know and i 
will take it off as soon as i get the message. so comment and rate thnx hope you enjoyed it...

PEACE :)
Добавлено: 18.10.2013
Другие материалы по этой песне:
  • Аккорды и текст

Страница создана 18.10.2013
http://primanota.ru/the-devil-wears-prada/plagues-chords.htm
Привет, Гость.
Предлагаем пройти революционный курс по гитаре.
Подарок от PrimaNota.Ru, забирай!