PrimaNota.ru - самый крупный в мире бесплатный архив песенных текстов, аккордов, табулатур и нот


The Devil Wears Prada - Sassafras - текст песни, таба, видео

Регистрация Запомнить меня
Войти через:  Facebook Google Twitter Vk Yandex Mail.ru

The Devil Wears Prada - Sassafras - текст песни, таба, видео

Печатать
Просмотров: 101
Song: Sassafras
Band: The Devil Wears Prada

Tuning: Drop D (D A D G B E)

Tabbed by: Aaron Stinson (some parts borrowed from andotherane5's GP5 tab)
E-Mail: Arsenik92@live.com

UPDATE-6.16.09: changed a few things around. Thanks, xhtmlrulezd0odx!

-----------------------

PM or - = palm mute
T = tremolo pick
~ = hold note
* = harmonic
b = bend
x = silent/muted

-----------------------

NOTE: Guitar III is sort of overlayed behind both guitars, playing through both 
speakers. It's sorta difficult to hear sometimes.


Intro (0:04 - 0:13) play twice

Guitar I
|----------------------------------|
|----------------------------------|
|----------------------------------|
|----------------------------------|
|-1-----1---------------------5----|
|---0-0---x-0-x-1-0-1h4-x-0-0---x--|
PM  - -   -   -   -     -   -   -

|---------------------------|
|---------------------------|
|---------------------------|
|---------------------------|
|-1-----1---------------1~--|
|---0-0---x-7-0-4-0-3-x-1~--|
PM  - -   -   -   -   -

Guitar II
|-----------------------------|
|-----------------------------|
|-----------------------------|
|-0~--------------------------|
|-0~--------------------------|
|-0~--------------------------|

(0:14 - 0:32) play twice

Guitars I, II
|---------------------------------|x3
|---------------------------------|
|---------------------------------|
|---------------------------------|
|-0-0-0-0--0-0-0-0-0-0--0-0-0-0---|
|-1-1-1-1--1-1-1-1-1-1--1-1-1-1---|
PM- - - -  - - - - - -  - - - -

then
|----------------------------|
|----------------------------|
|----------------------------|
|----------------------------|
|-0-0-0-0--0-0--0000--0000---|
|-1-1-1-1--1-1--1111--1111---|
PM- - - -  - -  ----  ----

(0:33 - 0:37)

Guitar I
|----------------------------------|
|----------------------------------|
|----------------------------------|
|----------------------------------|
|-1-----1---------------------5----|
|---0-0---x-0-x-1-0-1h4-x-0-0---x--|
PM  - -   -   -   -     - -     -

|---------------------------|
|---------------------------|
|---------------------------|
|---------------------------|
|-1-----1---------------1~--|
|---0-0---x-7-0-4-0-3-x-1~--|
PM  - -   -   -   -   -

Guitar II
|-----------------------------|
|-----------------------------|
|-----------------------------|
|-0~--------------------------|
|-0~--------------------------|
|-0~--------------------------|

Verse (0:38 - 0:46)

Guitars I, II
|----------------------------------|
|----------------------------------|
|----------------------------------|
|----------------------------------|
|-1-----1---------------------5----|
|---0-0---x-0-x-1-0-1h4-x-0-0---x--|
PM  - -   -   -   -     - -     -

|---------------------------|
|---------------------------|
|---------------------------|
|---------------------------|
|-1-----1---------------1~--|
|---0-0---x-7-0-4-0-3-x-1~--|
PM  - -   -   -   -   -

(0:47 - 0:56) play twice

Guitars I, II
|--------------------------------------|
|--------------------------------------|
|--------------------------------------|
|--------------------------------------|
|-000--000-000--000--000-000-000--000--|
|-000--000-000--000--000-000-000--000--|
PM---  --- ---  ---  --- --- --- ---

Guitar III (tremolo picked, kinda quiet)
|-----------------------------|
|-----------------------------|
|-----------------------------|
|-----------------------------|
|-5---------------------------|
|----8-7-8-7-5-8-5-3-5-3--1---|


Interlude (0:58 - 1:05)

Guitar I
|-----------------------------------------|
|-----------------------------------------|
|-----------------------------------------|
|-----------------------------------------|
|--------------------0~-------------------|
|-000--000-000--000--0~--4-3-1-0-4-3-1-0--|
PM---  --- ---  ---      - - - - - - - -

Guitar II
|-----------------------------------------|
|-----------------------------------------|
|-----------------------------------------|
|-----------------------------------------|
|--------------------0~-------------------|
|--------------------0~--4-3-1-0-4-3-1-0--|
                         - - - - - - - -

Guitar III (has some sort of delay effect)
|------------------------------|
|------------------------------|
|-10(x8)--9(x8)--7(x8)---------|
|-----------------------7(x8)--|
|------------------------------|
|------------------------------|

(contd.)
Guitar I
|-------------------------------------|
|-------------------------------------|
|-------------------------------------|
|-------------------------------------|
|-0----------1--0---------------------|
|-0----------1--0--0-0-4-3-1-0--3b*---|
PM                 - - - - - -

Guitar II
|-------------------------------------|
|-------------------------------------|
|-------------------------------------|
|-------------------------------------|
|-0----------1--0---------------3b*---|
|-0-000-000--1--0--0-0-4-3-1-0--------|
PM  --- ---        - - - - - -

Guitar III (has some sort of delay effect)
|--------------------------|
|--------------------------|
|-10(x8)--9(x6)--12(x18)---|
|--------------------------|
|--------------------------|
|--------------------------|

(1:06 - 1:24) play twice

Guitars I, II
|-------------------------------------------|
|-------------------------------------------|
|-------------------------------------------|
|-------------------------------------------|
|-000--000-000--000--000-000-000-000--000---|
|-000--000-000--000--000-000-000-000--000---|
PM---  --- ---  ---  --- --- --- ---  ---

Guitar III (has some sort of delay effect)
|-------------------------------------------------|
|-------------------------------------------------|
|-------------------------------------------------|
|----3-3\2-----------------3-3\2------/10---------|
|-5~--------5-5~\1~----5~---------5-------8-10b~--|
|-------------------------------------------------|

(contd.)
Guitars I, II
|-------------------------------------------|
|-------------------------------------------|
|-------------------------------------------|
|-------------------------------------------|
|-000--000-000--000--000-000-000-000--000---|
|-000--000-000--000--000-000-000-000--000---|
PM---  --- ---  ---  --- --- --- ---  ---

Guitar III (has some sort of delay effect)
|-------------------------------------------------|
|-------------------------------------------------|
|-------------------------------------------------|
|----3-3\2-----------------3-3\2------/10---------|
|-5~--------5-5~\1~----5~---------5-------8-10b~--|
|-------------------------------------------------|

(1:25 - 1:42) play twice

Guitar I
|----------------------------------|
|----------------------------------|
|----------------------------------|
|----------------------------------|
|-5-----5-----5---8-----8-----8----|
|---0-0---0-0---0---0-0---0-0---0--|
PM  - -   - -   -   - -   - -   -

Guitar II
|--------------|
|--------------|
|--------------|
|-0~-----------|
|-0~-----------|
|-0~-----------|

|----------------------------------------|
|----------------------------------------|
|----------------------------------------|
|----------------------------------------|
|-10-----10-----10---12-----12-----12----|
|----0-0----0-0----0----0-0----0-0----0--|
PM   - -    - -    -    - -    - -    -

Guitar II
|--------------|
|--------------|
|--------------|
|-0~-----------|
|-0~-----------|
|-0~-----------|

(contd.)
Guitar I
|----------------------------------|
|----------------------------------|
|----------------------------------|
|----------------------------------|
|-5-----5-----5---8-----8-----8----|
|---0-0---0-0---0---0-0---0-0---0--|
PM  - -   - -   -   - -   - -   -

Guitar II
|--------------|
|--------------|
|--------------|
|-8~-----------|
|-8~-----------|
|-8~-----------|

|----------------------------------------|
|----------------------------------------|
|----------------------------------------|
|----------------------------------------|
|-10-----10-----10---12-----12-----12----|
|----0-0----0-0----0----0-0----0-0----0--|
PM   - -    - -    -    - -    - -    -

Guitar II
|--------------|
|--------------|
|--------------|
|-8~-----------|
|-8~-----------|
|-8~-----------|

(1:42 - 1:44)

Guitar III
|---------------------|
|---------------------|
|---------------------|
|---------------------|
|---------------------|
|-0--0-0--0--0-0--0-0-|
PM   - -     - -

Breakdown (1:44 - 2:03) play twice

Guitars I, II
|---------------------------------|x3
|---------------------------------|
|---------------------------------|
|---------------------------------|
|-0-0-0-0--0-0-0-0-0-0--0-0-0-0---|
|-0-0-0-0--0-0-0-0-0-0--0-0-0-0---|
PM- - - -  - - - - - -  - - - -

then
|----------------------------|
|----------------------------|
|----------------------------|
|----------------------------|
|-0-0-0-0--0-0--0000--0000---|
|-0-0-0-0--0-0--0000--0000---|
PM- - - -  - -  ----  ----

PAUSE, FADE

Guitars I, II
|-------------|
|-------------|
|-------------|
|-0~~---------|
|-0~~---------|
|-0~~---------|

Chorus (2:05 - 2:43) play four times

Guitar I
|-------------------------------|
|-------------------------------|
|-7(x12)---14(x4)---12(x16)-----|
|-x---------x--------x----------|
|-5--------12-------10----------|
|-------------------------------|

Guitar II
|---------------------------------|
|---------------------------------|
|---------------------------------|
|---------------------------------|
|-8-8-8-8-8-8-8-8-5-5-5-5-5-5-5-5-|
|-8-8-8-8-8-8-8-8-5-5-5-5-5-5-5-5-|

(contd.)
Guitar I
|-------------------------------|
|-------------------------------|
|-7-(x16)---9-(x6)---17(x10)----|
|-x---------x---------x---------|
|-5---------7--------15---------|
|-------------------------------|

Guitar II
|---------------------------------|
|---------------------------------|
|---------------------------------|
|---------------------------------|
|-0-0-0-0-0-0-0-0-0-0-0-0-0-0-0-0-|
|-0-0-0-0-0-0-0-0-0-0-0-0-0-0-0-0-|

(2:44 - 2:48)

Guitar III
|------------------------|
|------------------------|
|--7-(x28)---------------|
|--x---------------------|
|--5---------------------|
|-----------TREMOLO BAR--|

(2:49 - 2:57) play twice

Guitars I, II
|-------------------------------|x4
|-------------------------------|
|-------------------------------|
|-0--12\------------------------|
|-0--12\---0-0-0x---0-0x-0x-0x---|
|-0--12\---0-0-0x---0-0x-0x-0x---|

Guitar III
|------------|
|-7-(x32)----|
|-x----------|
|-5----------|
|------------|
|------------|

(2:58 - 3:05)

Guitars I, II
|-------------------------------|x2
|-------------------------------|
|-------------------------------|
|-0--12\------------------------|
|-0--12\---0-0-0x---0-0x-0x-0x---|
|-0--12\---0-0-0x---0-0x-0x-0x---|

Guitar III (after second time)
|-------------------------------------------------|
|-------------------------------------------------|
|-10-10-10-10-10-10-10-10-12-12-12-12-12-12-12-12-|
|--x--x--x--x--x--x--x--x--x--x--x--x--x--x--x--x-|
|--8--8--8--8--8--8--8--8-10-10-10-10-10-10-10-10-|
|-------------------------------------------------|

Outro (3:06 - 3:12)

Guitar I
|-------------------------------------------------|
|-------------------------------------------------|
|-14-14-14-14-14-14-14-14-14-14-14-14-14-14-14-14-|
|--x--x--x--x--x--x--x--x--x--x--x--x--x--x--x--x-|
|-12-12-12-12-12-12-12-12-12-12-12-12-12-12-12-12-|
|-------------------------------------------------|

Guitar II
|-------------------------------------------------|
|-------------------------------------------------|
|-10-10-10-10-10-10-10-10-10-10-10-10-10-10-10-10-|
|--x--x--x--x--x--x--x--x--x--x--x--x--x--x--x--x-|
|--8--8--8--8--8--8--8--8--8--8--8--8--8--8--8--8-|
|-------------------------------------------------|

(contd.)
Guitar I
|-------------------------------------------------|
|-------------------------------------------------|
|-15-15-15-15-15-15-15-15-17-17-17-17-17-17-17-17-|
|--x--x--x--x--x--x--x--x--x--x--x--x--x--x--x--x-|
|-13-13-13-13-13-13-13-13-15-15-15-15-15-15-15-15-|
|-------------------------------------------------|

Guitar II
|-------------------------------------------------|
|-------------------------------------------------|
|-12-12-12-12-12-12-12-12-14-14-14-14-14-14-14-14-|
|--x--x--x--x--x--x--x--x--x--x--x--x--x--x--x--x-|
|-10-10-10-10-10-10-10-10-12-12-12-12-12-12-12-12-|
|-------------------------------------------------|

(3:13 - END)

Guitars I, II
|---------------------|
|---------------------|
|---------------------|
|-0--12\--------------|
|-0--12\---0x-0x-0x---|
|-0--12\---0x-0x-0x---|


:D


Добавлено: 29.03.2012
Другие материалы по этой песне:

Страница создана 29.03.2012
http://primanota.ru/the-devil-wears-prada/sassafras-chords.htm
Привет, Гость.
Предлагаем пройти революционный курс по гитаре.
Подарок от PrimaNota.Ru, забирай!